Guitar Tabs for Dont Stop Me Now

E|--------------------0--0--0--1--3--------------------------1--0-----
B|-----------1--3-----------------------------------------1-----------
G|--3--3--3-----------------------------2--2--0--------2--------------
D|-----------------------------------------------3--3-----------------
A|--------------------------------------------------------------------
E|--------------------------------------------------------------------

E|--------------------------------------------------------------------1--
B|--1-----------------------------------------1--------------------1-----
G|-----2--0-----------2--0-----0-----0--2--3--------2--2--0--------------
D|--------------3--3--------3--------------------------------3--3--------
A|-----------------------------------------------------------------------
E|-----------------------------------------------------------------------

E|-----------5--5--5--3--1-----------------------------------0--1--------
B|--3--5--1-----------------------------------------1--1--3--------------
G|-----------------------------2--0--------0--2--3-----------------------
D|-----------------------------------3-----------------------------------
A|-----------------------------------------------------------------------
E|-----------------------------------------------------------------------



tabs and chords, guitar tabs, music transcription, music technology, deep learning, music information retrieval, transcribe into tabs & chords, chordify, music renditions, songsterr, reverbnation, tabulature, bollywood chords, ultimate guitar, yousician, guitar lessons, acoustic guitar, electric guitar, guitar tuner, 911 tabs