Guitar Tabs for Dont Stop Me Now

E|--------------------------1--0--------------------------------------------------
B|-----------------------1-----------1--------------------------------------------
G|--2-----------------2-----------------2--------------2--0--------0--2--3--5-----
D|-----5--3-----3--3-----------------------3--5--3-----------3--------------------
A|--------------------------------------------------------------------------------
E|--------------------------------------------------------------------------------

E|-----0--1-----5--6--5--3--1--------5--5--6--5--3--2--3--5--------
B|--3--------------------------3-----------------------------3-----
G|-----------------------------------------------------------------
D|-----------------------------------------------------------------
A|-----------------------------------------------------------------
E|-----------------------------------------------------------------

E|--6--5--3--------6--5--3--3--3-----
B|-----------3-----------------------
G|-----------------------------------
D|-----------------------------------
A|-----------------------------------
E|-----------------------------------

tabs and chords, guitar tabs, music transcription, music technology, deep learning, music information retrieval, transcribe into tabs & chords, chordify, music renditions, songsterr, reverbnation, tabulature, bollywood chords, ultimate guitar, yousician, guitar lessons, acoustic guitar, electric guitar, guitar tuner, 911 tabs