Guitar Tabs for Bohemian

(/) Slide Up  (\) Slide Down  (h) Hammer On  (p) Pull Off  (b) Bend (r) Release (v) Vibrato (x) Muted

Tabs for Song : 
BPM : 200

Song lyrics here 
E|--------------3--1--------------3--1-----------------------------1--------------------1-----------------
B|--3--------3--------3--------3--------3--3-----1--3--3--3--3--4-----4--3--1--1--3--4-----4--3--1--3--3--
G|--------3-----------------3-----------------3-----------------------------------------------------------
D|-----3-----------------3--------------------------------------------------------------------------------
A|--------------------------------------------------------------------------------------------------------
E|--------------------------------------------------------------------------------------------------------

Song lyrics here 
E|--1--5--3--3--3--6--6--6--6--6-----------3--3--1--3--4--3--3--4--3--3--1--1--------1--1--3--3--4--4--6--4--
B|--------------------------------4--3--1--------------------------------------------------------------------
G|-----------------------------------------------------------------------------3--3--------------------------
D|-----------------------------------------------------------------------------------------------------------
A|-----------------------------------------------------------------------------------------------------------
E|-----------------------------------------------------------------------------------------------------------

   



tabs and chords, guitar tabs, music transcription, music technology, deep learning, music information retrieval, transcribe into tabs & chords, chordify, music renditions, songsterr, reverbnation, tabulature, bollywood chords, ultimate guitar, yousician, guitar lessons, acoustic guitar, electric guitar, guitar tuner, 911 tabs