B Min Pent - Guitar Tabs

b min pent:

1)

E|--------------------------------7--10-
B|--------------------------7--10-------
G|--------------------7--9--------------
D|--------------7--9--------------------
A|--------7--9--------------------------
E|--7--10-------------------------------

2)

E|--------------------------------10-12-
B|--------------------------10-12-------
G|--------------------9--11-------------
D|--------------9--12-------------------
A|--------9--12-------------------------
E|--10-12-------------------------------

3)

E|--------------------------------12-14-
B|--------------------------12-15-------
G|--------------------11-14-------------
D|--------------12-14-------------------
A|--------12-14-------------------------
E|--12-14-------------------------------

4)

E|--------------------------------2--5--
B|--------------------------3--5--------
G|--------------------2--4--------------
D|--------------2--4--------------------
A|--------2--5--------------------------
E|--2--5--------------------------------

5)

E|--------------------------------5--8--
B|--------------------------5--7--------
G|--------------------4--7--------------
D|--------------4--7--------------------
A|--------5--7--------------------------
E|--5--7--------------------------------

tabs and chords, guitar tabs, music transcription, music technology, deep learning, music information retrieval, transcribe into tabs & chords, chordify, music renditions, songsterr, reverbnation, tabulature, bollywood chords, ultimate guitar, yousician, guitar lessons, acoustic guitar, electric guitar, guitar tuner, 911 tabs