Guitar Tabs for C Min Pent

C MIN PENT:

1)


E|--------------------------------8--11----
B|--------------------------8--11----------
G|--------------------8--10----------------
D|--------------8--10----------------------
A|--------8--10----------------------------
E|--8--11----------------------------------

2)

E|--------------------------------11-13----
B|--------------------------11-13----------
G|--------------------10-12----------------
D|--------------10-13----------------------
A|--------10-13----------------------------
E|--11-13----------------------------------

3)

E|--------------------------------13-15----
B|--------------------------13-16----------
G|--------------------12-15----------------
D|--------------13-15----------------------
A|--------13-15----------------------------
E|--13-15----------------------------------

4)

E|--------------------------------3--6-----
B|--------------------------4--6-----------
G|--------------------3--5-----------------
D|--------------3--5-----------------------
A|--------3--6-----------------------------
E|--3--6-----------------------------------

5)

E|--------------------------------6--8-----
B|--------------------------6--8-----------
G|--------------------5--8-----------------
D|--------------5--8-----------------------
A|--------6--8-----------------------------
E|--6--8-----------------------------------


tabs and chords, guitar tabs, music transcription, music technology, deep learning, music information retrieval, transcribe into tabs & chords, chordify, music renditions, songsterr, reverbnation, tabulature, bollywood chords, ultimate guitar, yousician, guitar lessons, acoustic guitar, electric guitar, guitar tuner, 911 tabs