Guitar Tabs for Blasphemy

(/) Slide Up  (\) Slide Down  (h) Hammer On  (p) Pull Off  (b) Bend (r) Release (v) Vibrato (x) Muted

Tabs & Chords
BPM : 144.0
Check Track 2 for Chord Positions 

       A#          C                                                  C#       F              Fm 
E|--------------------------------13-16-13-16-------15----15-------13----13-------------15-------
B|--------------------------13-------------------16----16-------14----14-------13----13----------
G|-----------14-15-14----------------------------------------------------------------------------
D|--15-17-------------17----------------------------------------------------------------------15-
A|-----------------------------------------------------------------------------------------------
E|-----------------------------------------------------------------------------------------------

                               G#                C#             C                 Fm          
E|--------------------------------------------------13----------------------------------------
B|-----------13----------------------13----------14-------13-------------13-------------------
G|--13----13----13----13----------------------------------------------------------------13----
D|-----15----------15----13-17-13-17----17-13-17----------------17----17----17----17-15-------
A|-----------------------------------------------------------------------------------------15-
E|--------------------------------------------------------------------------------------------

                            G#             C#             C                 Fm                
E|--------------------------------------------13----------------------------------------------
B|-----13----------------------13----------14-------13-------------13----------------------13-
G|--13----13----13----------------------------------------------------------------13----13----
D|-----------15----13-17-13-17----17-13-17----------------17----17----17----17-15----15-------
A|--------------------------------------------------------------------------------------------
E|--------------------------------------------------------------------------------------------

                      G#                
E|--------------------------------------
B|-----------------------13----------14-
G|--13----13----------------------------
D|-----15----13-17-13-17----17-13-17----
A|--------------------------------------
E|--------------------------------------

Guitar Tabs for Blasphemy






       A#          C                                                  C#       F              Fm 
E|-----1-----------0--------------------------------------------------4--------1--------------1--
B|-----3-----------1--------------------------------------------------6--------1--------------1--
G|-----3-----------0--------------------------------------------------6--------2--------------1--
D|-----3-----------2--------------------------------------------------6--------3--------------3--
A|-----1-----------3--------------------------------------------------4--------3--------------3--
E|-----------------------------------------------------------------------------1--------------1--

                               G#                C#             C                 Fm          
E|-----------------------------4-----------------4--------------0-----------------1-----------
B|-----------------------------4-----------------6--------------1-----------------1-----------
G|-----------------------------5-----------------6--------------0-----------------1-----------
D|-----------------------------6-----------------6--------------2-----------------3-----------
A|-----------------------------6-----------------4--------------3-----------------3-----------
E|-----------------------------4--------------------------------------------------1-----------

                            G#             C#             C                 Fm                
E|--------------------------4--------------4--------------0-----------------1-----------------
B|--------------------------4--------------6--------------1-----------------1-----------------
G|--------------------------5--------------6--------------0-----------------1-----------------
D|--------------------------6--------------6--------------2-----------------3-----------------
A|--------------------------6--------------4--------------3-----------------3-----------------
E|--------------------------4-----------------------------------------------1-----------------

                      G#                
E|--------------------4-----------------
B|--------------------4-----------------
G|--------------------5-----------------
D|--------------------6-----------------
A|--------------------6-----------------
E|--------------------4-----------------

tabs and chords, guitar tabs, music transcription, music technology, deep learning, music information retrieval, transcribe into tabs & chords, chordify, music renditions, songsterr, reverbnation, tabulature, bollywood chords, ultimate guitar, yousician, guitar lessons, acoustic guitar, electric guitar, guitar tuner, 911 tabs