Guitar Tabs for Short Break In Mushroom Town - M&lbis


E|--------6-----------6--------------1--3--4--3--1--3-----------1--3--4--3--1--3--1--------------1--3--4--3--1--3-----------------4--1-----6
B|--4--------4--4--------4--4-----4--------------------4-----4-----------------------4--4-----4--------------------------0--2--4--------3--
G|-----3-----------3-----------3--------------------------3--------------------------------3-----------------------1--3--------------------
D|-----------------------------------------------------------------------------------------------------------------------------------------
A|-----------------------------------------------------------------------------------------------------------------------------------------
E|-----------------------------------------------------------------------------------------------------------------------------------------

E|-----------1--3--4--3--1--3-----------1--3--4--3--1--3--1--------------1--3--4--3--1--3-----------------4--1--------
B|--4-----4--------------------4-----4-----------------------4--4-----4--------------------------0--2--4--------3--4--
G|-----3--------------------------3--------------------------------3-----------------------1--3-----------------------
D|--------------------------------------------------------------------------------------------------------------------
A|--------------------------------------------------------------------------------------------------------------------
E|--------------------------------------------------------------------------------------------------------------------

E|--------------------------------------------------------------1--3--1-----------1--------
B|--------------------------------------------------------3--4-----------4--3--4-----------
G|-----------3--5--6--5--3--5-----------3--5--6--5--3--5-----------------------------5--3--
D|--6-----6--------------------6-----6-----------------------------------------------------
A|-----6--------------------------6--------------------------------------------------------
E|-----------------------------------------------------------------------------------------

E|-----------------1--------------------------1-----------1--3--3--4--3--6--4--3--3--1--
B|-----------3--4-----4--3--4-----------3--4-----4--3--4--------------------------------
G|--5-----5--------------------5-----5--------------------------------------------------
D|-----6--------------------------6-----------------------------------------------------
A|--------------------------------------------------------------------------------------
E|--------------------------------------------------------------------------------------

E|-----3--4--3--4-----------------3--4--3--4--6--4--3--4-----3--4--3--4--------------------------3--1--4--3--1--
B|--1--------------3--4--6--4--1--------------------------1--------------3--4--6--4--1--1--3--4-----------------
G|--------------------------------------------------------------------------------------------------------------
D|--------------------------------------------------------------------------------------------------------------
A|--------------------------------------------------------------------------------------------------------------
E|--------------------------------------------------------------------------------------------------------------


tabs and chords, guitar tabs, music transcription, music technology, deep learning, music information retrieval, transcribe into tabs & chords, chordify, music renditions, songsterr, reverbnation, tabulature, bollywood chords, ultimate guitar, yousician, guitar lessons, acoustic guitar, electric guitar, guitar tuner, 911 tabs