Guitar Tabs for Birden Geldin Akl?ma

(/) Slide Up  (\) Slide Down  (h) Hammer On  (p) Pull Off  (b) Bend (r) Release (v) Vibrato (x) Muted

Tabs for Song : 
BPM : 200

Song lyrics here 
E|--1-----------------------------------------------------------1--------5--6--8--6--5--3--5--3-----
B|--1---------8/10-8--6--8--6--8---8/10-6-----------------------1--------------------------------6--
G|--2--------------------------------------7--7-----5-----------2-----------------------------------
D|--3-----------------------------------------------------------3-----------------------------------
A|--3-----------------------------------------------------------3-----------------------------------
E|--1-----------------------------------------------------------1-----------------------------------

Song lyrics here 
E|--1--------------------------------------------------------1-----8--8--6--6---5/-6\5--3--1--3--5--
B|--1-----8--8---8/9--8--6--8--6---8/10-6--------------------1--------------------------------------
G|--2--------------------------------------7--7-----5--------2--------------------------------------
D|--3--------------------------------------------------------3--------------------------------------
A|--3--------------------------------------------------------3--------------------------------------
E|--1--------------------------------------------------------1--------------------------------------

Use manual mode to free up cursor. Paste any tab in acousterr tab maker and we'll play it !!!


E|--3--5--6--8--10--8/6--8-----6--6---5/3--5-----------------------------------------------
B|--------------------------------------------6--6--8---6/5--3--1---1/3--3---3/5--3--------
G|-----------------------------------------------------------------------------------------
D|-----------------------------------------------------------------------------------------
A|-----------------------------------------------------------------------------------------
E|-----------------------------------------------------------------------------------------

E|--------ayn?--------------------------------------------------------------------------------------
B|--------------------------------------------6--10-8--5--6--5--1--3--------------------------
G|--------------------------------------------------------------------------------------------
D|--------------------------------------------------------------------------------------------
A|--------------------------------------------------------------------------------------------
E|--------------------------------------------------------------------------------------------
tabs and chords, guitar tabs, music transcription, music technology, deep learning, music information retrieval, transcribe into tabs & chords, chordify, music renditions, songsterr, reverbnation, tabulature, bollywood chords, ultimate guitar, yousician, guitar lessons, acoustic guitar, electric guitar, guitar tuner, 911 tabs