Guitar Tabs for Phool Ko Aakha Ma

(/) Slide Up  (\) Slide Down  (h) Hammer On  (p) Pull Off  (b) Bend (r) Release (v) Vibrato (x) Muted

Tabs for Song : Phool ko aakha ma

Intro:

    Eb             Bb             Eb             Bb
E|--------------------------------------------------
B|--------------------------------------------------
G|--------------------------------------------------
D|--------------------------------------------------
A|---7\11-8-----8-----8-----------8--11-8-----------
E|-----------9-----11----9--11-------------9---9\11-

    Eb             Bb             Ab          Eb
E|-----------------------------------------------
B|-----------------------------------------------
G|-----------------------------------------------
D|-----------------------------------------------
A|---7\11-8-----8-----------------------8--------
E|-----------9-----11----9--6-----9--------11-9--

          Eb          Bb          Cm          Bb          Eb          Bb          Ab       Eb 
E|--------------------------------------------------------------------------------------------
B|--14-11-9-----------------14-11-9-----------------14-11-9-----------------------------------
G|-----------10----------------------10----------------------10-------------10----------------
D|--------------11-11\13----------------11-11\13----------------11-11\13-------13-11----13-11-
A|-----------------------------------------------------------------------------------13-------
E|--------------------------------------------------------------------------------------------

Eb              Gm  Eb          Fm
Phool ko aankha ma, phulai sansara
Fm        Eb         Bb           Eb
Kaanda ko aankha ma, kaandai sansara x2

Eb              Cm       Eb         Fm
Jhulkinchha hai chhayan, basto aansara
Fm        Eb         Bb      Eb
Kaanda ko aankha ma, kaandai sansara

Eb              Gm  Eb          Fm
Phool ko aankha ma, phulai sansara
Fm        Eb         Bb           Eb
Kaanda ko aankha ma, kaandai sansara

Songs Melody
E|--
B|--
G|--
D|--
A|--
E|--


Solo 01:

    Eb       Bb       Eb          Bb
E|--------------------------------------
B|--------------------------------------
G|--10----10----------10-13-10----------
D|-----11----13-11-13----------11-11\13-
A|--------------------------------------
E|--------------------------------------

    Eb       Bb        Fm      Eb
E|--------------------------------
B|--------------------------------
G|--10----10----------13----15-13-
D|-----11----13-11-13----14-------
A|--------------------------------
E|--------------------------------

    Eb             Cm       Ab                         Eb
E|-----------------------------------------------------------------
B|-----------------------------19-19-19-19-18-18-18-18-17-17-17-17-
G|--------13-15-17-15-13-------------------------------------------
D|--13\15----------------15-16-------------------------------------
A|-----------------------------------------------------------------
E|-----------------------------------------------------------------

    Cm             Eb       Fm                         Eb
E|-----------------------------------------------------------------
B|-----------------------------18-18-18-18-17-17-17-17-16-16-16-16-
G|--------13-15-17-15-13-------------------------------------------
D|--13\15----------------16-15-------------------------------------
A|-----------------------------------------------------------------
E|-----------------------------------------------------------------


Verse 02:

Eb            Fm        Eb          Fm
Chhita suddha hos, mero boli Buddha hos
Cm        Bb     Bb         Eb
Mero paitala le, kirai na maros x2

Eb           Cm           Eb          Fm
Ramro aankha ma khulchha, ramrai sansara
Fm        Eb         Bb      Eb
Kaanda ko aankha ma, kaandai sansara

Eb              Gm  Eb          Fm
Phool ko aankha ma, phulai sansara
Fm        Eb         Bb           Eb
Kaanda ko aankha ma, kaandai sansara


Song Melody:
E|--
B|--
G|--
D|--
A|--
E|--


Solo 02:
          Fm                Cm
E|-----------------------------------
B|-----------------------------------
G|-----------------------13----------
D|--15-13-15-11\13-13\15----15-13-13-
A|-----------------------------------
E|-----------------------------------

    Bb                      Fm
E|--------------------------------
B|--------------------------------
G|--------------------------------
D|-----------------------13-------
A|--16-14-16-12\14-14\16----16-16-
E|--------------------------------

    Cm       Eb       Fm       Eb
E|-----------------------------------------
B|-----------------------------------------
G|-----------13-10-------------11-10-------
D|--11-13-15-------11-11\13----------13-11-
A|-----------------------------------------
E|-----------------------------------------

Verse 03:

Eb            Fm        Eb          Fm
Taha taha jun dehen, kalo ratai ma
Cm        Bb     Bb         Eb
Jivan sangeet sunun ma, sukha patai ma

Eb           Cm           Eb          Fm
Sanglo manma khulchha hai, sanglai sansara
Fm        Eb         Bb      Eb
Kaanda ko aankha ma, kaandai sansara


Repeat Verse 01:

Eb              Gm  Eb          Fm
Phool ko aankha ma, phulai sansara
Fm        Eb         Bb           Eb
Kaanda ko aankha ma, kaandai sansara x2

Eb              Cm       Eb         Fm
Jhulkinchha hai chhayan, basto aansara
Fm        Eb         Bb      Eb
Kaanda ko aankha ma, kaandai sansara

Eb              Gm  Eb          Fm
Phool ko aankha ma, phulai sansara
Fm        Eb         Bb           Eb
Kaanda ko aankha ma, kaandai sansara


Outro:

Eb              Gm  Eb          Fm
Phool ko aankha ma, phulai sansara

Fm        Eb         Bb           Eb
Kaanda ko aankha ma, kaandai sansara - 4 (till fade)
tabs and chords, guitar tabs, music contests, music covers, songsterr, reverbnation, renditions, tabulature, bollywood chords, ultimate guitar, yousician, guitar lessons, torrins, fender, gibson, acoustic guitar, electric guitar, youtube covers, gootar, guitar tuner, A-Z tabs, 911 tabs