Guitar Tabs for Bheege honth tere

Tabs for Song : Bheege Honth Tere

bheege honth tere,pyasa dil mera

E|-----------------------------------------------------
B|--7--7--5-----5--------------7--7--5-----5-----------
G|-----------------7--7-----------------------7--7-----
D|-----------------------------------------------------
A|-----------------------------------------------------
E|-----------------------------------------------------

lage abra sa,mujhe tan tera

E|-----------------------------------------------
B|--7--7-----7--5-----------7--7--5-----5--------
G|--------7--------------------------------7-----
D|-----------------------------------------------
A|-----------------------------------------------
E|-----------------------------------------------

chamke barsayen ,mujhpe ghataye

E|-----------------------------------------------
B|--7--7--5--5--5-----------7--7--5--------5-----
G|-----------------7-----------------7--7--------
D|-----------------------------------------------
A|-----------------------------------------------
E|-----------------------------------------------

tu hi meri pyaas,tu hi mera jahan

E|-----------------------------------------------
B|--7--7-----7--5------7/8-----7--7--5--5--------
G|--------7--------------------------------7-----
D|-----------------------------------------------
A|-----------------------------------------------
E|-----------------------------------------------

kabhi mere sath ,koi raat guzar

E|-----------------------------------------------
B|--------------7--5--------------------5--3-----
G|--4--4--6--7--------------4--4--6--6-----------
D|-----------------------------------------------
A|-----------------------------------------------
E|-----------------------------------------------

tujhe subha tak mein karu pyaar

E|--------------------------------------------
B|-----------------7--5--7--8-----7--7--------
G|--4--4--6--7--------------------------7-----
D|--------------------------------------------
A|--------------------------------------------
E|--------------------------------------------




tabs and chords, guitar tabs, music contests, music covers, songsterr, reverbnation, renditions, tabulature, bollywood chords, ultimate guitar, yousician, guitar lessons, torrins, fender, gibson, acoustic guitar, electric guitar, youtube covers, gootar, guitar tuner, A-Z tabs, 911 tabs