Best Friend - Rex Orange County - Bass Tabs

(/) Slide Up  (\) Slide Down  (h) Hammer On  (p) Pull Off  (b) Bend (r) Release (v) Vibrato (x) Muted

Tabs for Song : 
BPM : 200

'' I should've stayed at home
G|-----------0-----------0--------11-------0-----13|x2
D|--------11----------11-------9--------13----11---|
A|-----9-----------9-----------------11------------|
E|--0-----------0----------------------------------|

'' i could've made u mine... ''
G|-----------0-----------0--------11-------0-----14----13/
D|--------11----------11-------9--------13----12----11----
A|-----9-----------9-----------------11-------------------
E|--0-----------0-----------------------------------------

REST 

'' I cant wait to be your number one.... '' 
G|-----------------------------------------------
D|-----------------------------------------------
A|--------------1-----1--2-----2--5-----7--5--2--
E|--4--2-----2-----------------------------------

'' Oh wont you wait.... ''
G|--------------------------------------------------------------------------------
D|--------------------------------------------------------------------------------
A|--9-----9--9-----------9-----9--9--------------------------5--7--7--9-----9--9--
E|-----------------9--10----------------9--8--7-----7--7--------------------------

G|-----------------------------------------------------------------
D|-----------------------------------------------------------------
A|--9-----9--9-----------9-----9--9-----------------5---7\11-10----
E|-----------------9--10----------------9--8--7--------------------

'' You need to be yourself...''
G|--------------------------------------------------------------------------------------
D|--------------------------------------------------------------------------------------
A|--9-----9--9-----------9-----9--9--------------------------11----11-11----4-----4--4--
E|-----------------9--10----------------9--8--7-----7--7--------------------------------

'' you're still my favorite girl... ''
G|-----------------------------------------------------------------------------
D|-----------------------------------------------------------------------------
A|--9-----9--9-----------9-----9--9-----------------------11----11-11----5--4--
E|-----------------9--10-------------9--8--7-----7--7--------------------------

REST UNTIL

'' you're gonna wanna be my bestfriend.. ''                                                     (2x)then,
G|-------------------------------------------------------------------------------------------------|------------------
D|--4--4--------4--4-----------------4--4--------4--4----------------------------------------------|------------------
A|--------4--4--------4--4--6--4-----------4--4--------4---4/2--2--------2--2--------2--5--7--5--2-|2--5--7--9--9--11\
E|-----------------------------------------------------------------2--2--------2--2----------------|------------------
                                                                             '' i say that im happy''
G|--------------------------------------------------------------------------------------------------
D|--4--4--------4--4-----------------4--4--------4--4-----------------------------------------------
A|--------4--4--------4--4--6--4-----------4--4--------4--4-----2--2--2--2--2-----5--5--5--5--5-----
E|--------------------------------------------------------------------------------------------------

G|--------------------------------------------------
D|--------------------------------------------------
A|--------------------7-----------------------------
E|--7--7--7--7--7--7-----7--7--7--7--7--------2-----

'' oh i still wanna be your favorite boy....
G|--------------------------------------------------------------
D|--------------------------------------------------------------
A|--12\1-----1--1--1--1--1-----2--2--2--2--2-----5--5--5--5--5--
E|--------------------------------------------------------------

G|-----------------------------------------------------------------------------------------
D|-----------------------------------------------------------------------------------------
A|--5-----7--7--5--5-----------------------------------1--1--1--1--1--1-----2--2--2--2--2--
E|--------------------7--7--5--5-----2--2--2--2--2-----------------------------------------

G|-------------------------------------------------
D|-----------------------------------------------------
A|--1--1--1--1--1-----2--2--2--2--2-----5--5--5--5--5--
E|-----------------------------------------------------
REPEAT THIS 2X
G|--------------------------------------------------------------------------------------------
D|--------------------------------------------------------------------------------------------
A|--5-----7--7--5--5-----------------------------------1--1--1--1--1--1-----2--2--2--2--2-----
E|--------------------7--7--4--4-----2--2--2--2--2--------------------------------------------


OUTROOOO
G|--------------------------------0--
D|-----------------------------11----
A|--2-----2--4--5-----7--9--9--------
E|-----------------------------------










tabs and chords, guitar tabs, music transcription, music technology, deep learning, music information retrieval, transcribe into tabs & chords, chordify, music renditions, songsterr, reverbnation, tabulature, bollywood chords, ultimate guitar, yousician, guitar lessons, acoustic guitar, electric guitar, guitar tuner, 911 tabs