Bass Tabs for Ben E. King - Stand By Me

Ben E. King - Stand By Me

All Song
G|-----------------------------------------------------------------------------
D|--7-----7--------6--7-----7--7--6--4-----4--------4-----4-----4--------------
A|--------------7--------------------------------7-----------------7--5-----5--
E|-----------------------------------------------------------------------------

G|-----------------------------------------------------
D|-----4-----------------6--7-----7--------6--7-----7--
A|--5-----7-----7-----7-----------------7--------------
E|-----------------------------------------------------
tabs and chords, guitar tabs, music transcription, music technology, deep learning, music information retrieval, transcribe into tabs & chords, chordify, music renditions, songsterr, reverbnation, tabulature, bollywood chords, ultimate guitar, yousician, guitar lessons, acoustic guitar, electric guitar, guitar tuner, 911 tabs