Guitar Tabs for Bella Ciao

E|-----------------------------------------------------------------------------0-----0-----0--
B|--------0--1-----------------0--1-----------------0--1-----0-----1-----0--------------------
G|-----2--------2-----------2--------2-----------2--------------2-----------2-----------------
D|--2--------------------2--------------------2-----------------------------------------------
A|--------------------------------------------------------------------------------------------
E|--------------------------------------------------------------------------------------------

E|-----0--1-----1-----1--
B|--3--------------------
G|-----------------------
D|-----------------------
A|-----------------------
E|-----------------------

Guitar Tabs for Bella Ciao

E|--
B|--
G|--
D|--
A|--
E|--

tabs and chords, guitar tabs, music transcription, music technology, deep learning, music information retrieval, transcribe into tabs & chords, chordify, music renditions, songsterr, reverbnation, tabulature, bollywood chords, ultimate guitar, yousician, guitar lessons, acoustic guitar, electric guitar, guitar tuner, 911 tabs