Guitar Tabs for Bella Ciao

(/) Slide Up  (\) Slide Down  (h) Hammer On  (p) Pull Off  (b) Bend (r) Release (v) Vibrato (x) Muted

Tabs for Song : 

Song lyrics here



E|-----
B|-----
G|-----
D|-----
A|--0--
E|-----

E|-----------------------------------------
B|-----------------------------------------
G|-----------------------------------------
D|-----7-----5-----3-----2-----7-----5-----
A|-----------------------------------------
E|--5-----3-----1-----0-----5-----3-----1--


Song lyrics here
E|-----------------------------------------------------------0-----0-----0--0-----0--1--1-----------1--0-----1--0-----------0--------------0-----------------
B|--------0--1--------------------0--1-----0-----1-----0--------1-----1--2-----3--------3-----3-----3-----3-----1-----1-----1--3--1--0-----------0-----1-----
G|-----2--------2-----2--------2--------2-----2-----2-----2-----2-----2--0--------------2-----2-----2-----2-----2-----2-----2-----2-----1-----1-----1-----1--
D|--2-----------2-----2-----2-----------2-----2-----2-----2--------2-----------------0-----------0-----------------2-----------2--------2-----2-----2-----2--
A|-----------0-----------------------0-----------0-----------0-----------------------------0-----------0-----0-----------0-----------------2-----------2-----
E|-----------------0-----0-----0-----------0-----------0-----------------0-----------------------------------------------------------0-----------0-----------



Paste any tab in acousterr's tab maker and we'll play it !!!
Now supports capo and sound effects for vibrato/pull-off/hammer/bends/mutes etc !!! Checkout help section
tabs and chords, guitar tabs, music transcription, music technology, deep learning, music information retrieval, transcribe into tabs & chords, chordify, music renditions, songsterr, reverbnation, tabulature, bollywood chords, ultimate guitar, yousician, guitar lessons, acoustic guitar, electric guitar, guitar tuner, 911 tabs