Guitar Tabs for Beginnings (breakdown-chords)

(/) Slide Up  (\) Slide Down  (h) Hammer On  (p) Pull Off  (b) Bend (r) Release (v) Vibrato (x) Muted

Tabs & Chords
BPM : 110.0
Check Track 2 for Chord Positions 

             Dm                   A#       Dm                                                 
E|--0--0-----------------0--------------0-----------------3--3--3--3--3--3-----3-----8-----8--
B|--------------------------6--------------------------3--------------------3-----------------
G|--------------------------------------------------------------------------------------------
D|-----------3--0--0-----------------------0-----0--------------------------------------------
A|--------------------------------------------------------------------------------------------
E|--------------------------------6-----------------------------------------------------------

                A#          Dm                      D        Dm                                  
E|--8--8--8-----5-----5--5--5--5-----5-----0--0-----0--0--0--0--------3--3--3--3-----3--3-----3--
B|--------------------------------------------------------------3--------------------------------
G|-----------------------------------------------------------------------------------------------
D|-----------------------------------------------------------------------------------------------
A|-----------------------------------------------------------------------------------------------
E|-----------------------------------------------------------------------------------------------

                               A#             Dm                                              
E|--3-----8-----8--8-----8-----5-----5--5-----5--5-----0--0--3--0--0--0--------------3--------
B|-----------------------------------------------------------------------3--3-----3-----3--3--
G|--------------------------------------------------------------------------------------------
D|--------------------------------------------------------------------------------------------
A|--------------------------------------------------------------------------------------------
E|--------------------------------------------------------------------------------------------

                   
E|--------------20-
B|-----------------
G|-----------------
D|-----------------
A|--------0--------
E|--3--------------

Guitar Tabs for Beginnings (breakdown-chords)






             Dm                   A#       Dm                                                 
E|-----------1--------------------1--------1--------------------------------------------------
B|-----------3--------------------3--------3--------------------------------------------------
G|-----------2--------------------3--------2--------------------------------------------------
D|-----------0--------------------3--------0--------------------------------------------------
A|--------------------------------1-----------------------------------------------------------
E|--------------------------------------------------------------------------------------------

                A#          Dm                      D        Dm                                  
E|--------------1-----------1-----------------------2--------1-----------------------------------
B|--------------3-----------3-----------------------3--------3-----------------------------------
G|--------------3-----------2-----------------------2--------2-----------------------------------
D|--------------3-----------0-----------------------0--------0-----------------------------------
A|--------------1--------------------------------------------------------------------------------
E|-----------------------------------------------------------------------------------------------

                               A#             Dm                                              
E|-----------------------------1--------------1-----------------------------------------------
B|-----------------------------3--------------3-----------------------------------------------
G|-----------------------------3--------------2-----------------------------------------------
D|-----------------------------3--------------0-----------------------------------------------
A|-----------------------------1--------------------------------------------------------------
E|--------------------------------------------------------------------------------------------

                   
E|-----------------
B|-----------------
G|-----------------
D|-----------------
A|-----------------
E|-----------------

tabs and chords, guitar tabs, music transcription, music technology, deep learning, music information retrieval, transcribe into tabs & chords, chordify, music renditions, songsterr, reverbnation, tabulature, bollywood chords, ultimate guitar, yousician, guitar lessons, acoustic guitar, electric guitar, guitar tuner, 911 tabs