Beginning - Castlevania 3 - Bass Tabs

Track 5
    4 
                                                                                                                                                                                                                                                                                                                                                                                                                                                                                                                                                                                                 
G|-------------------------------------|
D|--0--0--0--0-----------0--0--0-------|
A|-------------------------------------|
E|-------------------------------------|

    
                                                                                                                                                                                                                                                                                                                                                                                                                                                                                                                                                                                                                                                                                                                                                                                                                                                                                                                                                                                                                                                                                                                                                                                              
G|-----------------------------------2-|-----------------------------------|
D|-----0--0--0--------0--------2-------|0--0--0--0-----------0--0--0-------|
A|-------------------------------------|-----------------------------------|
E|-------------------------------------|-----------------------------------|

    
                                                                                                                                                                                                                                                                                                                                                                                                                                                                                                                                                                                                 
G|-----------------------------2-|
D|-----0--0--0--------0-----2----|
A|-------------------------------|
E|-------------------------------|

    4 4 
                                                                                                                                                                                                                                                                                                                                                                                                                                                                                                                                                                                                                                                                                                                                                                                                                                                                                                                                                                                                                                                                                                                                                                                              
G|--------------7-----------7--7--7--7----|------------9--------8--8--8--8-|
D|--------------------------------------0-|--------------------------------|
A|--5--5--5--5--------5--5----------------|7--7--7--7--------6-------------|
E|----------------------------------------|--------------------------------|

    
                                                                                                                                                                                                                                                                                                                                                                                                                                                                                                                                                                                                                                                                                                                                                                                                                                                                                                                                                                                                                                                                                                                                                                                              
G|--------------7-----------7--7--7--7----|------------9-----------12-------14|
D|--------------------------------------0-|-----------------------------------|
A|--5--5--5--5--------5--5----------------|7--7--7--7--------12-12----12-12---|
E|----------------------------------------|-----------------------------------|

    
                                                                                                                                                                                                                                                                                                                                                                                                                                                                                                                                                                                                                                                                                                                                                                                                                                                                                                                                                                                                                                                                                                                                                                                              
G|--------------7-----------7--7--7--7----|------------9--------8--8--8--8-|
D|--------------------------------------0-|--------------------------------|
A|--5--5--5--5--------5--5----------------|7--7--7--7--------6-------------|
E|----------------------------------------|--------------------------------|

    
                                                                                                                                                                                                                                                                                                                                                                                                                                                                                                                                                                                                                                                                                                                                                                                                                                                                                                                                                                                                                                                                                                                                                                                              
G|--------------7-----------7--7--7--7----|------------9-----------12-------14|
D|--------------------------------------0-|-----------------------------------|
A|--5--5--5--5--------5--5----------------|7--7--7--7--------12-12----12-12---|
E|----------------------------------------|-----------------------------------|

    
                                                                                                                                                                                                                                                                                                                                                                                                                                                                                                                                                                                                                                                                                                                                                                                                                                                                                                                                                                                                                                                                                                                                                                                              
G|-----------15-------15----15------------------|---------14-------14-------------14---------|
D|--------------------------------15----12----8-|---------------------------15-12----15-12---|
A|--13-13-13-------13----13---------------------|12-12-12-------12----12-12----------------12|
E|-----------------------------13----10----6----|--------------------------------------------|

    
                                                                                                                                                                                                                                                                                                                                                                                                                                                                                                                                                                                                                                                                                                                                                                                                                                                                                                                                                                                                                                                                                                                                                                                              
G|-----------13-------13----------13-16-13----16|14-------14-------14-------14-------14----14---|
D|-----------------------------15----------15---|-----------------------------------------------|
A|--11-11-11-------11-------16------------------|---12-12----12-12----12-12----12-12----12----12|
E|----------------------------------------------|-----------------------------------------------|

    
                                                                                                                                                                                                                                                                                                                                                                                                                                                                                                                                                                                                                                                                                                                                                                                                                                                                                                                                                                                                                                                                                                                                                                                              
G|----------------------------|--------------------------|
D|--12-------12-12-14---------|7-----7-----7--6----------|
A|----------------------------|--------------------------|
E|----------------------------|--------------------------|

    
                                                                                                                                                                                                                                                                                                                                                                                                                                                                                                                                                                                                                                                                                                                                                                                                                                                                                                                                                                                                                                                                                                                                                                                              
G|----------------------------------------|---------14-14-14-14-14-14-14------|
D|--5-----5-----5--3--5--6--------6--3--6-|7----------------------------------|
A|----------------------------------------|-----------------------------------|
E|----------------------------------------|-----------------------------------|

    
                                                                                                                                                                                                                                                                                                                                                                                                                                                                                                                                                                                                                                                                                                                                                                                                                                                                                                                                                                                                                                                                                                                                                                                              
G|-----------------19----------------------17------|---------------16-------------------5-----5----|
D|--12----12----12----------------10----10-------10|9-----9-----9--------9--8-----8----------------|
A|-----------------------17-15---------------------|---------------------------------------3-----3-|
E|-----10----10-------10-------8-----8--------8----|---7-----7--------7--------6-----6-------------|

    
                                                                                                                                                                                                                                                                                                                                                                                                                                                                                                                                                                                                                                                                                                                                                                                                                                                                                                                                                                                                                                                                                                                                                                                              
G|--7-----7-----7--19----------------------17------|---------------16-------15----15----15-14-12-10|
D|-----0-----0--------------------10----10-------10|9-----9-----9--------9-------------------------|
A|-----------------------17-15---------------------|---------------------------13----13------------|
E|--------------------10-------8-----8--------8----|---7-----7--------7----------------------------|

    
                                                                                                                                                                                                                                                                                                                                                                                                                                                                                                                                                                                                                                                                                                                                                                                                                                                                                                                                                                                                                                                                                                                                                                                              
G|--------14-14-------------------14-14|------14-------14-12-10-10-9--7--6-|
D|-------------------------------------|-----------------------------------|
A|--12-12----------12----12----12------|12----------12---------------------|
E|-------------------------------------|-----------------------------------|

    
                                                                                                                                                                                                                                                                                                                                                                                                                                                                                                                                                                                                                                                                                                                                                                                                                                                                                                                                                                                                                                                                                                                                                                                              
G|-------------------------------------|---------------------------------2-|
D|--0--0--0--0-----------0--0--0-------|---0--0--0--------0--------2-------|
A|-------------------------------------|-----------------------------------|
E|-------------------------------------|-----------------------------------|

    
                                                                                                                                                                                                                                                                                                                                                                                                                                                                                                                                                                                                                                                                                                                                                                                                                                                                                                                                                                                                                                                                                                                                                                                              
G|-------------------------------------|---------------------------2-|
D|--0--0--0--0-----------0--0--0-------|---0--0--0--------0-----2----|
A|-------------------------------------|-----------------------------|
E|-------------------------------------|-----------------------------|

    4 
                                                                                                                                                                                                                                                                                                                                                                                                                                                                                                                                                                                                 
G|--------------7-----------7--7--7--7----|
D|--0--0--0--0--------0--0--------------0-|
A|----------------------------------------|
E|----------------------------------------|

    
                                                                                                                                                                                                                                                                                                                                                                                                                                                                                                                                                                                                                                                                                                                                                                                                                                                                                                                                                                                                                                                                                                                                                                                              
G|--------------9--------8--8--8--8-|------------7-----------7--7--7--7----|
D|----------------------------------|0--0--0--0--------0--0--------------0-|
A|--7--7--7--7--------6-------------|--------------------------------------|
E|----------------------------------|--------------------------------------|

    
                                                                                                                                                                                                                                                                                                                                                                                                                                                                                                                                                                                                                                                                                                                                                                                                                                                                                                                                                                                                                                                                                                                                                                                              
G|--------------9-----------12-------14|------------7-----------7--7--7--7----|
D|-------------------------------------|0--0--0--0--------0--0--------------0-|
A|--7--7--7--7--------12-12----12-12---|--------------------------------------|
E|-------------------------------------|--------------------------------------|

    
                                                                                                                                                                                                                                                                                                                                                                                                                                                                                                                                                                                                                                                                                                                                                                                                                                                                                                                                                                                                                                                                                                                                                                                              
G|--------------9--------8--8--8--8-|------------7-----------7--7--7--7----|
D|----------------------------------|0--0--0--0--------0--0--------------0-|
A|--7--7--7--7--------6-------------|--------------------------------------|
E|----------------------------------|--------------------------------------|

    
                                                                                                                                                                                                                                                                                                                                                                                                                                                                                                                                                                                                                                                                                                                                                                                                                                                                                                                                                                                                                                                                                                                                                                                              
G|--------------9-----------12-------14|---------15-------15----15------------------|
D|-------------------------------------|------------------------------15----12----8-|
A|--7--7--7--7--------12-12----12-12---|13-13-13-------13----13---------------------|
E|-------------------------------------|---------------------------13----10----6----|

    
                                                                                                                                                                                                                                                                                                                                                                                                                                                                                                                                                                                                                                                                                                                                                                                                                                                                                                                                                                                                                                                                                                                                                                                              
G|-----------14-------14-------------14---------|---------13-------13----------13-16-13----16|
D|-----------------------------15-12----15-12---|---------------------------15----------15---|
A|--12-12-12-------12----12-12----------------12|11-11-11-------11-------16------------------|
E|----------------------------------------------|--------------------------------------------|

    
                                                                                                                                                                                                                                                                                                                                                                                                                                                                                                                                                                                                                                                                                                                                                                                                                                                                                                                                                                                                                                                                                                                                                                                              
G|--14-------14-------14-------14-------14----14---|--------------------------|
D|-------------------------------------------------|12-------12-12-14---------|
A|-----12-12----12-12----12-12----12-12----12----12|--------------------------|
E|-------------------------------------------------|--------------------------|

    
                                                                                                                                                                                                                                                                                                                                                                                                                                                                                                                                                                                                                                                                                                                                                                                                                                                                                                                                                                                                                                                                                                                                                                                              
G|----------------------------|--------------------------------------|
D|--7-----7-----7--6----------|5-----5-----5--3--5--6--------6--3--6-|
A|----------------------------|--------------------------------------|
E|----------------------------|--------------------------------------|

    
                                                                                                                                                                                                                                                                                                                                                                                                                                                                                                                                                                                                                                                                                                                                                                                                                                                                                                                                                                                                                                                                                                                                                                                              
G|-----------14-14-14-14-14-14-14------|---------------19----------------------17------|
D|--7----------------------------------|12----12----12----------------10----10-------10|
A|-------------------------------------|---------------------17-15---------------------|
E|-------------------------------------|---10----10-------10-------8-----8--------8----|

    
                                                                                                                                                                                                                                                                                                                                                                                                                                                                                                                                                                                                                                                                                                                                                                                                                                                                                                                                                                                                                                                                                                                                                                                              
G|-----------------16-------------------5-----5----|7-----7-----7--19----------------------17------|
D|--9-----9-----9--------9--8-----8----------------|---0-----0--------------------10----10-------10|
A|-----------------------------------------3-----3-|---------------------17-15---------------------|
E|-----7-----7--------7--------6-----6-------------|------------------10-------8-----8--------8----|

    
                                                                                                                                                                                                                                                                                                                                                                                                                                                                                                                                                                                                                                                                                                                                                                                                                                                                                                                                                                                                                                                                                                                                                                                              
G|-----------------16-------15----15----15-14-12-10|------14-14-------------------14-14|
D|--9-----9-----9--------9-------------------------|-----------------------------------|
A|-----------------------------13----13------------|12-12----------12----12----12------|
E|-----7-----7--------7----------------------------|-----------------------------------|

    
                                                                                                                                                                                                                                                                                                                                                                                                                                                                                                                                                                                                 
G|--------14-------14-12-10-10-9--7--6-|
D|-------------------------------------|
A|--12----------12---------------------|
E|-------------------------------------|
tabs and chords, guitar tabs, music transcription, music technology, deep learning, music information retrieval, transcribe into tabs & chords, chordify, music renditions, songsterr, reverbnation, tabulature, bollywood chords, ultimate guitar, yousician, guitar lessons, acoustic guitar, electric guitar, guitar tuner, 911 tabs