Castlevania I (nes) - Stage 3 - Castlevania - Guitar Tabs

Main Guitar
    
                                                                                                                                                                                                                                                                                                                                                                                                                                                                                                                                                                                                 
E|----------------------------------------------|
B|----------------------------------------------|
G|-----10-10-10-9--10----12----10-10-10-9--10---|
D|----------------------------------------------|
A|----------------------------------------------|
E|----------------------------------------------|

    
                                                                                                                                                                                                                                                                                                                                                                                                                                                                                                                                                                                                                                                                                                                                                                                                                                                                                                                                                                                                                                                                                                                                                                                              
E|----------------------------------------------|--------------------------------------------|
B|----------------------------------------------|--------------------------------------------|
G|-----10-10-10-9--10----12----10-10-10-9--10---|---10-10-10-9--10----12----10-10-10-9--10---|
D|----------------------------------------------|--------------------------------------------|
A|----------------------------------------------|--------------------------------------------|
E|----------------------------------------------|--------------------------------------------|

    
                                                                                                                                                                                                                                                                                                                                                                                                                                                                                                                                                                                                                                                                                                                                                                                                                                                                                                                                                                                                                                                                                                                                                                                              
E|----------------------------------------------|---12----11----10----9-------|
B|----------------------------------------------|-----------------------------|
G|-----10-10-10-9--10----12----10-10-10-9--10---|-----------------------------|
D|----------------------------------------------|-----------------------------|
A|----------------------------------------------|-----------------------------|
E|----------------------------------------------|-----------------------------|

    
                                                                                                                                                                                                                                                                                                                                                                                                                                                                                                                                                                                                                                                                                                                                                                                                                                                                                                                                                                                                                                                                                                                                                                                              
E|-----12----11----10----9-------|---12----11----10----9-------|
B|-------------------------------|-----------------------------|
G|-------------------------------|-----------------------------|
D|-------------------------------|-----------------------------|
A|-------------------------------|-----------------------------|
E|-------------------------------|-----------------------------|

    
                                                                                                                                                                                                                                                                                                                                                                                                                                                                                                                                                                                                                                                                                                                                                                                                                                                                                                                                                                                                                                                                                                                                                                                              
E|-----12----11----10----9-------|5--4--5--4--5--------5-----5--4--5-----------5-|
B|-------------------------------|------------------6--------------------6-------|
G|-------------------------------|---------------7--------------------7----------|
D|-------------------------------|-----------------------------------------------|
A|-------------------------------|-----------------------------------------------|
E|-------------------------------|-----------------------------------------------|

    
                                                                                                                                                                                                                                                                                                                                                                                                                                                                                                                                                                                                                                                                                                                                                                                                                                                                                                                                                                                                                                                                                                                                                                                              
E|--------8-----------8-------------|5--4--5--4--5--------5-----5--4--5-----------5-|
B|-----6-----------6----------------|------------------6--------------------6-------|
G|--7-----------7-------------------|---------------7--------------------7----------|
D|----------------------------------|-----------------------------------------------|
A|----------------------------------|-----------------------------------------------|
E|----------------------------------|-----------------------------------------------|

    
                                                                                                                                                                                                                                                                                                                                                                                                                                                                                                                                                                                                 
E|--------8-----------8--------13-12|
B|-----6-----------6----------------|
G|--7-----------7-------------------|
D|----------------------------------|
A|----------------------------------|
E|----------------------------------|

    
                                                                                                                                                                                                                                                                                                                                                                                                                                                                                                                                                                                                 
E|----------------------------|
B|--------8-----10------------|
G|--10------------------------|
D|----------------------------|
A|----------------------------|
E|----------------------------|

    
                                                                                                                                                                                                                                                                                                                                                                                                                                                                                                                                                                                                                                                                                                                                                                                                                                                                                                                                                                                                                                                                                                                                                                                              
E|----------------------------|--------------------------|
B|----------------------------|--------------------------|
G|--9-----10----12------------|------9-----10------------|
D|----------------------------|12------------------------|
A|----------------------------|--------------------------|
E|----------------------------|--------------------------|

    
                                                                                                                                                                                                                                                                                                                                                                                                                                                                                                                                                                                                                                                                                                                                                                                                                                                                                                                                                                                                                                                                                                                                                                                              
E|--9-----10----12------------|--------------------------|
B|----------------------------|------8-----10------------|
G|----------------------------|10------------------------|
D|----------------------------|--------------------------|
A|----------------------------|--------------------------|
E|----------------------------|--------------------------|

    
                                                                                                                                                                                                                                                                                                                                                                                                                                                                                                                                                                                                                                                                                                                                                                                                                                                                                                                                                                                                                                                                                                                                                                                              
E|----------------------------|--------------------------|
B|----------------------------|--------------------------|
G|--9-----10----12------------|------9-----10------------|
D|----------------------------|12------------------------|
A|----------------------------|--------------------------|
E|----------------------------|--------------------------|

    
                                                                                                                                                                                                                                                                                                                                                                                                                                                                                                                                                                                                                                                                                                                                                                                                                                                                                                                                                                                                                                                                                                                                                                                              
E|--9-----10----12------------|12----13----15------------|
B|----------------------------|--------------------------|
G|----------------------------|--------------------------|
D|----------------------------|--------------------------|
A|----------------------------|--------------------------|
E|----------------------------|--------------------------|

    
                                                                                                                                                                                                                                                                                                                                                                                                                                                                                                                                                                                                                                                                                                                                                                                                                                                                                                                                                                                                                                                                                                                                                                                              
E|--5--4--5--4--5--------5-----5--4--5-----------5-|------8-----------8-------------|
B|--------------------6--------------------6-------|---6-----------6----------------|
G|-----------------7--------------------7----------|7-----------7-------------------|
D|-------------------------------------------------|--------------------------------|
A|-------------------------------------------------|--------------------------------|
E|-------------------------------------------------|--------------------------------|

    
                                                                                                                                                                                                                                                                                                                                                                                                                                                                                                                                                                                                                                                                                                                                                                                                                                                                                                                                                                                                                                                                                                                                                                                              
E|--5--4--5--4--5--------5-----5--4--5-----------5-|------8-----------8--------13-12|
B|--------------------6--------------------6-------|---6-----------6----------------|
G|-----------------7--------------------7----------|7-----------7-------------------|
D|-------------------------------------------------|--------------------------------|
A|-------------------------------------------------|--------------------------------|
E|-------------------------------------------------|--------------------------------|

    
                                                                                                                                                                                                                                                                                                                                                                                                                                                                                                                                                                                                                                                                                                                                                                                                                                                                                                                                                                                                                                                                                                                                                                                              
E|----------------------------|--------------------------|
B|--------8-----10------------|--------------------------|
G|--10------------------------|9-----10----12------------|
D|----------------------------|--------------------------|
A|----------------------------|--------------------------|
E|----------------------------|--------------------------|

    
                                                                                                                                                                                                                                                                                                                                                                                                                                                                                                                                                                                                                                                                                                                                                                                                                                                                                                                                                                                                                                                                                                                                                                                              
E|----------------------------|9-----10----12------------|
B|----------------------------|--------------------------|
G|--------9-----10------------|--------------------------|
D|--12------------------------|--------------------------|
A|----------------------------|--------------------------|
E|----------------------------|--------------------------|

    
                                                                                                                                                                                                                                                                                                                                                                                                                                                                                                                                                                                                                                                                                                                                                                                                                                                                                                                                                                                                                                                                                                                                                                                              
E|----------------------------|--------------------------|
B|--------8-----10------------|--------------------------|
G|--10------------------------|9-----10----12------------|
D|----------------------------|--------------------------|
A|----------------------------|--------------------------|
E|----------------------------|--------------------------|

    
                                                                                                                                                                                                                                                                                                                                                                                                                                                                                                                                                                                                                                                                                                                                                                                                                                                                                                                                                                                                                                                                                                                                                                                              
E|----------------------------|9-----10----12------------|
B|----------------------------|--------------------------|
G|--------9-----10------------|--------------------------|
D|--12------------------------|--------------------------|
A|----------------------------|--------------------------|
E|----------------------------|--------------------------|

    
                                                                                                                                                                                                                                                                                                                                                                                                                                                                                                                                                                                                 
E|--12----13----15------------|
B|----------------------------|
G|----------------------------|
D|----------------------------|
A|----------------------------|
E|----------------------------|
tabs and chords, guitar tabs, music transcription, music technology, deep learning, music information retrieval, transcribe into tabs & chords, chordify, music renditions, songsterr, reverbnation, tabulature, bollywood chords, ultimate guitar, yousician, guitar lessons, acoustic guitar, electric guitar, guitar tuner, 911 tabs