Guitar Tabs for Beetein Lamhe

chand lamhat k washtey....
E|--7--5--7--7--5--7-----7--5---7/10-10-8--------
B|-----------------------------------------10----
G|-----------------------------------------------
D|-----------------------------------------------
A|-----------------------------------------------
E|-----------------------------------------------

mushkura k mili...
E|--7--5--7--7--5--7-----7--5---7/10-10-8--------
B|-----------------------------------------10----
G|-----------------------------------------------
D|-----------------------------------------------
A|-----------------------------------------------
E|-----------------------------------------------

teri aagosh me...
E|--10-10-10/12----10-8--7-----5--5---5h7--8--7--7-----
B|-----------------------------------------------------
G|-----------------------------------------------------
D|-----------------------------------------------------
A|-----------------------------------------------------
E|-----------------------------------------------------

teri bahoon me
E|--10-10-10/12----10-8--7-----5--5---5h7---7/8--5---5/7---5\-3/5------7h-8p-7h-8p-7h8---5h7--
B|--------------------------------------------------------------------------------------------
G|--------------------------------------------------------------------------------------------
D|--------------------------------------------------------------------------------------------
A|--------------------------------------------------------------------------------------------
E|--------------------------------------------------------------------------------------------

aaj bhi jab woh
E|---8/10-8--7--7--8---7h-8p7-----------------------------
B|-----------------------------10-10----10/12-12-13-12----
G|--------------------------------------------------------
D|--------------------------------------------------------
A|--------------------------------------------------------
E|--------------------------------------------------------

dil se sare gamo ko...
E|--------------------------------------------------
B|--8--7---7h8--8--10-10----10-10-10/12-12-13-12----
G|--------------------------------------------------
D|--------------------------------------------------
A|--------------------------------------------------
E|--------------------------------------------------


dard me bhi....
E|---8/10-8--7--7--8---7h-8p7-----------------------------
B|-----------------------------10-10----10/12-12-13-12----
G|--------------------------------------------------------
D|--------------------------------------------------------
A|--------------------------------------------------------
E|--------------------------------------------------------

beetein lamhe....
E|--------------------------------------------------
B|--8--7---7h8--8--10-10----10-10-10/12-12-13-12----
G|--------------------------------------------------
D|--------------------------------------------------
A|--------------------------------------------------
E|--------------------------------------------------


dard me....
E|---8/10-8--7------------------8/10-10-------10/12-------
B|---------------------7/8--7-----------------------------
G|--------------------------------------------------------
D|--------------------------------------------------------
A|--------------------------------------------------------
E|--------------------------------------------------------
tabs and chords, guitar tabs, music transcription, music technology, deep learning, music information retrieval, transcribe into tabs & chords, chordify, music renditions, songsterr, reverbnation, tabulature, bollywood chords, ultimate guitar, yousician, guitar lessons, acoustic guitar, electric guitar, guitar tuner, 911 tabs