Guitar Tabs for Be Alright

(/) Slide Up  (\) Slide Down  (h) Hammer On  (p) Pull Off  (b) Bend (r) Release (v) Vibrato (x) Muted

Tabs for Song : 
BPM : 200

Song lyrics here 
E|--------------------------------------------------------------------------------
B|--------5--------5--------5-----8--------8--------8-----7--------7--------7-----
G|-----------0--------0--------------0--------0--------------0--------0-----------
D|--------------------------------------------------------------------------------
A|-----3--------3--------3-----7--------7--------7-----5--------5--------5-----5--
E|--------------------------------------------------------------------------------

E|--------------------------------------------------------------------------------------------------
B|-----8--------8--------8-----5--------5--------5-----3--------3--------3-----7--------7--------7--
G|--------0--------0--------------0--------0--------------0--------0--------------0--------0--------
D|--------------------------------------------------------------------------------------------------
A|--7--------7--------7-----3--------3--------3-----------------------------5--------5--------5-----
E|--------------------------------------------------3--------3--------3-----------------------------

E|--------------------------------------------------------------------------------------------------
B|-----8--------8--------8-----5--------3--------3-----0--------0--------0-----7--------7--------7--
G|--------0--------0--------------0--------0--------------0--------0--------------0--------0--------
D|--------------------------------------------------------------------------------------------------
A|--7--------7--------7-----3--------3--------3-----------------------------5--------5--------5-----
E|--------------------------------------------------3--------3--------3-----------------------------

E|--------------------------------------------------------------------------------------------
B|-----8--------8--------5--------5--------5-----3--------3--------3-----3--------3--------3--
G|--------0--------0--------0--------0--------------0--------0--------------0--------0--------
D|--------------------------------------------------------------------------------------------
A|--7--------7--------3--------3--------3-----------------------------2--------2--------2-----
E|--------------------------------------------3--------3--------3-----------------------------

E|--------------------------------------------------------------------------------------------------
B|-----5--------5--------5-----8--------8--------8-----7--------7--------7-----7--------7--------7--
G|--------0--------0--------------0--------0--------------0--------0--------------0--------0--------
D|--------------------------------------------------------------------------------------------------
A|--3--------3--------3-----7--------7--------7-----5--------5--------5-----5--------5--------5-----
E|--------------------------------------------------------------------------------------------------

E|-----------------------------------------------------------------------------
B|-----5--------5--------5-----8--------8--------8-----7--------7--------7-----
G|--------0--------0--------------0--------0--------------0--------0-----------
D|-----------------------------------------------------------------------------
A|--3--------3--------3-----7--------7--------7-----5--------5--------5-----5--
E|-----------------------------------------------------------------------------

E|--------------------------------------------------------------------------------------------------
B|-----8--------8--------8-----5--------5--------5-----3--------3--------3-----7--------7--------7--
G|--------0--------0--------------0--------0--------------0--------0--------------0--------0--------
D|--------------------------------------------------------------------------------------------------
A|--7--------7--------7-----3--------3--------3-----------------------------5--------5--------5-----
E|--------------------------------------------------3--------3--------3-----------------------------

E|--------------------------------------------------------------------------------------------------
B|-----8--------8--------8-----5--------3--------3-----0--------0--------0-----7--------7--------7--
G|--------0--------0--------------0--------0--------------0--------0--------------0--------0--------
D|--------------------------------------------------------------------------------------------------
A|--7--------7--------7-----3--------3--------3-----------------------------5--------5--------5-----
E|--------------------------------------------------3--------3--------3-----------------------------



E|--------------------------------------------------------------------------------------------------
B|--8-----------------------5-----------------------3-----------------------7-----------------------
G|--------------------------------------------------------------------------------------------------
D|--------------------------------------------------------------------------------------------------
A|--7-----------------------3-----------------------------------------------5-----------------------
E|--------------------------------------------------3-----------------------------------------------

E|--------------------------------------------------------------------------------------------------
B|-----8--------8--------8-----5--------5--------5-----3--------3--------3-----7--------7--------7--
G|--------0--------0--------------0--------0--------------0--------0--------------0--------0--------
D|--------------------------------------------------------------------------------------------------
A|--7--------7--------7-----3--------3--------3-----------------------------5--------5--------5-----
E|--------------------------------------------------3--------3--------3-----------------------------

E|--------------------------------------------------------------------------------------------------
B|-----8--------8--------8-----5--------5--------5-----3--------3--------3-----7--------------------
G|--------0--------0--------------0--------0--------------0--------0--------------------------------
D|--------------------------------------------------------------------------------------------------
A|--7--------7--------7-----3--------3--------3--------------------------------5--------------------
E|--------------------------------------------------3--------3--------3-----------------------------

E|--
B|--
G|--
D|--
A|--
E|--

E|--
B|--
G|--
D|--
A|--
E|--

E|--
B|--
G|--
D|--
A|--
E|--

E|--
B|--
G|--
D|--
A|--
E|--

E|--
B|--
G|--
D|--
A|--
E|--

E|--
B|--
G|--
D|--
A|--
E|--

E|--
B|--
G|--
D|--
A|--
E|--

Song lyrics here 
E|--
B|--
G|--
D|--
A|--
E|--

Use manual mode to free up cursor. Paste any tab in acousterr tab maker and we'll play it !!!
tabs and chords, guitar tabs, music transcription, music technology, deep learning, music information retrieval, transcribe into tabs & chords, chordify, music renditions, songsterr, reverbnation, tabulature, bollywood chords, ultimate guitar, yousician, guitar lessons, acoustic guitar, electric guitar, guitar tuner, 911 tabs