Guitar Tabs for Be Alright

(/) Slide Up  (\) Slide Down  (h) Hammer On  (p) Pull Off  (b) Bend (r) Release (v) Vibrato (x) Muted

Tabs for Song : 
BPM : 180



Song lyrics here 
E|--------------------------------------------------------------------------------------------------
B|-----9--------9--------9-----13-------13-------13----11-------11-------11----11-------11-------11-
G|--------4--------4--------------4--------4--------------4--------4--------------4--------4--------
D|--------------------------------------------------------------------------------------------------
A|--7--------7--------7-----12-------12-------12----9--------9--------9-----9--------9--------9-----
E|--------------------------------------------------------------------------------------------------

        I know you love her, but its over, mate       It doesn't matter put the phone away

E|-----------------------------------------------------------------------------------------------------------------------------------------------------------------------------------------------------
B|-----13-------13-------13----9--------9--------9-----7--------7--------7-----11-------11-------11----13-------13-------13----9--------7--------7--------4--------4--------4-----11-------11-------11-
G|--------4--------4--------------4--------4--------------4--------4--------------4--------4--------------4--------4--------------4--------4--------4--------4--------4--------------4--------4--------
D|-----------------------------------------------------------------------------------------------------------------------------------------------------------------------------------------------------
A|--12-------12-------12----7--------7--------7-----------------------------9--------9--------9-----12-------12-------12----7--------7--------7--------------------------------9--------9--------9-----
E|--------------------------------------------------7--------7--------7--------------------------------------------------------------------------------7--------7--------7-----------------------------

Use manual mode to free up cursor. Paste any tab in acousterr tab maker and we'll play it !!!

tabs and chords, guitar tabs, music transcription, music technology, deep learning, music information retrieval, transcribe into tabs & chords, chordify, music renditions, songsterr, reverbnation, tabulature, bollywood chords, ultimate guitar, yousician, guitar lessons, acoustic guitar, electric guitar, guitar tuner, 911 tabs