Guitar Tabs for Whole Lotta Love

e|-------------------------------|--------------------------------------------------|
B|-------------------------------|--------------------------------------------------|
G|-------------------------------|--------------------------------------------------|
D|------------------0)-------0)--|---9-----------9-----------9-----------9----------|
A|------------------5--------5---|---7-----------7-----------7-----------7----------|
E|--------------7--------7-------|---0--0--0--0--0--0--0--0--0--0--0--0--0--0--0--0-|
                   * Bend 1/4 step

e|-------------------------------------------------|--------------------------------------------------|
B|-------------------------------------------------|--------------------------------------------------|
G|-------------------------------------------------|--------------------------------------------------|
D|--9-----------9-----------9--9------0)-------0)--|---9-----------9-----------9-----------9----------|
A|--7-----------7-----------7--7------5--------5---|---7-----------7-----------7-----------7----------|
E|--0--0--0--0--0--0--0--0--0--0--7--------7-------|---0--0--0--0--0--0--0--0--0--0--0--0--0--0--0--0-|

[Solo]
     Gtr. 1
e|----------------------------------------------------------|
B|--9-----9-------------------------------------------------|
G|--9-----9-------------------------------------------------|
D|--9-----9-------------------------------------------------|
A|--7-----7-------------------------------------------------|
E|----------------------------------------------------------|

  |  Gtr. 2      1                                    1      |
e|-----------------------12---------------------------------------------|
B|-------------)---12----------15p12------------------------------)vvvv-|
G|-----------14-------------------------15p14p12----14----12----14------|
D|----------------------------------------------------------------------|
A|----------------------------------------------------------------------|
E|----------------------------------------------------------------------|

e|----------------------------------------------------------|
B|--9-----9-------------------------------------------------|
G|--9-----9-------------------------------------------------|
D|--9-----9-------------------------------------------------|
A|--7-----7-------------------------------------------------|
E|----------------------------------------------------------|

e|----------------------------------------------------------------|
B|-----------------3----------------------------------------------|
G|------------2/4------4p-2p0---4p-2p0----------------------------|
D|---------------------------------------2p0------2p0-------------|
A|--------------------------------------------2--------2---0h2----|
E|----------------------------------------------------------------|

e|-------------------------------------------------|
B|--9-----9----------------------------------------|
G|--9-----9----------------------------------------|
D|--9-----9----------------------------------------|
A|--7-----7----------------------------------------|
E|-------------------------------------------------|
 
  |              1           1   1        1       | 
e|-----------------------12------)-----)---15---)vvv-----|
B|-------------)---12----------15----15-------15---------|
G|-----------14------------------------------------------|
D|-------------------------------------------------------|
A|-------------------------------------------------------|
E|-------------------------------------------------------|

e|----------------------------------------------------|
B|--9-----9-------------------------------------------|
G|--9-----9-------------------------------------------|
D|--9-----9-------------------------------------------|
A|--7-----7-------------------------------------------|
E|----------------------------------------------------|

  |                    2                               |  
e|-------------------)--'--'--'--'--'--'--'--'--\--------------------------|
B|-----------17----20-------------------------------17----------20p17vvv---|
G|--------------------------------------------------------18---------------|
D|-------------------------------------------------------------------------|
A|-------------------------------------------------------------------------|
E|-------------------------------------------------------------------------|

e|-------------------------------------------------------|
B|--9-----9----------------------------------------------|
G|--9-----9----------------------------------------------|
D|--9-----9----------------------------------------------|
A|--7-----7----------------------------------------------|
E|-------------------------------------------------------|

  |                  1                                  |
e|-----------------19----19----18----17------------------------|
B|-----------17----------------------------20p17----20p17vvv---|
G|-------------------------------------------------------------|
D|-------------------------------------------------------------|
A|-------------------------------------------------------------|
E|-------------------------------------------------------------|

e|----------------------------------------------------|
B|--9-----9-------------------------------------------|
G|--9-----9-------------------------------------------|
D|--9-----9-------------------------------------------|
A|--7-----7-------------------------------------------|
E|----------------------------------------------------|

  |                     1/2 1/2 1/2   1               | 
e|-------------------------)-----)-----)-----)---19------------|
B|-----------17----19----19----19----19----19----------17vvv---|
G|-------------------------------------------------------------|
D|-------------------------------------------------------------|
A|-------------------------------------------------------------|
E|-------------------------------------------------------------|

tabs and chords, guitar tabs, music transcription, music technology, deep learning, music information retrieval, transcribe into tabs & chords, chordify, music renditions, songsterr, reverbnation, tabulature, bollywood chords, ultimate guitar, yousician, guitar lessons, acoustic guitar, electric guitar, guitar tuner, 911 tabs