Bass Tabs for Barão Vermelho - Pedra, Flor E Espinho

BASS TAB
Barão Vermelho - Pedra, Flor e Espinho

Intro
G|------------------------------------------------------7h9---7h9--
D|--------6--7---9/11-9-----11-------------------------------------
A|-----------------------------11----4-----------------------------
E|--0--------------------------------------3--0--------------------

G|-----------------------------
D|-----------------------------  4x   
A|--7-----7--7--7--7--4--5-----
E|-----------------------------

G|--------------
D|--------------
A|--4--4--------
E|--------3--0--

Verse
G|-----------------------------
D|-----------------------------  4x   
A|--7-----7--7--7--7--4--5-----
E|-----------------------------                                           
                                                   2x
G|-----------------------------------
D|-----------------------------------
A|--4-----4--4--4--2-----4--4--------
E|--------------------4--------3--3--

Pre-Chorus
G|-----------------------------
D|-----------------------------
A|--4--4--2-----4--4-----------
E|-----------4--------5--5-----
                                                  2x
G|-----------------------------
D|-----------------------------  2x   
A|--7-----7--7--7--7--4--5-----
E|-----------------------------  

Chorus
G|-----------------------------------------------------------------
D|-----------------------------------------------------------------
A|-----------------------------4--------------5--4-----5--4--2-----
E|--5--0-----5--5--5--0-----------------------------------------0--
                                                                           2x
G|-----------------------------------------
D|-----------------------------------------
A|-----------------------------------------
E|--5--0-----0-----5--5--5--0-----5--5--0--
tabs and chords, guitar tabs, music transcription, music technology, deep learning, music information retrieval, transcribe into tabs & chords, chordify, music renditions, songsterr, reverbnation, tabulature, bollywood chords, ultimate guitar, yousician, guitar lessons, acoustic guitar, electric guitar, guitar tuner, 911 tabs