Guitar Tabs for Barish - Half Girlfirend Tabs

Tabs for Song : Barish(half girlfriend)

chehre me tere
E|--3--1--0--------0-----
B|-----------3--3--------
G|-----------------------
D|-----------------------
A|-----------------------
E|-----------------------

khud ko mein dhoondhu
E|--3--1--0--------0-----
B|-----------3--3--------
G|-----------------------
D|-----------------------
A|-----------------------
E|-----------------------

aankhon ke darmiyaan
E|--0-----------0-----------
B|-----3--3--3-----1--0-----
G|--------------------------
D|--------------------------
A|--------------------------
E|--------------------------

tu ab hai is tarha
E|--0-----------0-----------
B|-----3--3--3-----1--0-----
G|--------------------------
D|--------------------------
A|--------------------------
E|--------------------------

khwabon ko bhi jagah na mile
E|--0-----------0--------------------------
B|-----3--3--3-----1--0--0--0--1--0--------
G|-----------------------------------2-----
D|-----------------------------------------
A|-----------------------------------------
E|-----------------------------------------

ye mausam ki barish
E|-----------0-----------
B|--1--1--3-----0--1-----
G|-----------------------
D|-----------------------
A|-----------------------
E|-----------------------

ye barish ka paani
E|-----------0-----------
B|--1--1--3-----0--1-----
G|-----------------------
D|-----------------------
A|-----------------------
E|-----------------------

ye pani ki boondein
E|-----------------------
B|--0--0--1--3--0--1-----
G|-----------------------
D|-----------------------
A|-----------------------
E|-----------------------

tujhe hi to dhoondhe
E|-----------------------
B|--0--0--1--3--0--1-----
G|-----------------------
D|-----------------------
A|-----------------------
E|-----------------------

ye milne ki khwahish
E|-----------0-----------
B|--1--1--3-----0--1-----
G|-----------------------
D|-----------------------
A|-----------------------
E|-----------------------

ye khwahish purani
E|-----------0-----------
B|--1--1--3-----0--1-----
G|-----------------------
D|-----------------------
A|-----------------------
E|-----------------------

ho puri tujhi se
E|-----------------------
B|--0--0--1--3--0--1-----
G|-----------------------
D|-----------------------
A|-----------------------
E|-----------------------

ye meri kahani
E|-----------3--1--0--0-----
B|--0--0--1-----------------
G|--------------------------
D|--------------------------
A|--------------------------
E|--------------------------





tabs and chords, guitar tabs, music transcription, music technology, deep learning, music information retrieval, transcribe into tabs & chords, chordify, music renditions, songsterr, reverbnation, tabulature, bollywood chords, ultimate guitar, yousician, guitar lessons, acoustic guitar, electric guitar, guitar tuner, 911 tabs