Guitar Tabs for Barcos De Cristal (intro)

(/) Slide Up  (\) Slide Down  (h) Hammer On  (p) Pull Off  (b) Bend (r) Release (v) Vibrato (x) Muted

Tabs for Song : 

Song lyrics here
E|--------------------0--------------------0--------------------0--0--------------0--1------0h-1p0-----0---1h3--1-----------1-----
B|--3------1p0---1h3-----3------1p0---1h3-----3------2p0---2h3--------3--------3--------3-----------3--------------3-----3--------
G|-----0--------------------0--------------------2--------------------------2-----------------------------------------2-----------
D|-----------------------------------------------------------------------2-----------0--------------------------0--------------0--
A|--3--------------------3--------------------0--------------------0--------------------------------------------------------------
E|--------------------------------------------------------------------------------------------------------------------------------

Song lyrics here
E|--3--1----0-----------------------1--------------------1-----------------0-----------------0--------------0--3--------------------3-----------------3--1-----------------
B|--2--------3--2--------------3--------------------3-----------------------3--2--------------2--------2--------3--------------------3-----------3--------1-----------1--
G|--3--------------3--2--0--2---------2p0------0h2---------2p0------0h2-----------2-----2-----------2--------------------3--3-----------------3--------------------2-----
D|--2--------------------------0-----------3--------0-----------3--------------------2-----------2--------------------5--------5-----------5--------------------3--------
A|-----------------------------------------------------------------------0-----------------0-----------------------------------------------------------------------------
E|-----------------------------------------------------------------------------------------------------------3-----3--------------3-----3--------------1-----1-----------

E|--0--------------------0--------------------0-----------------0--------------------
B|-----0--------------0-----0-----------0--------------------0-----0--------------0--
G|---------------1h2-----------------2-----1------------1h2------------------1h2-----
D|-----------2--------------------2-----------------2--------------------2-----------
A|--------2--------------------2-----------------2--------------------2--------------
E|--0--------------------0-----------------0--------------------0--------------------

Paste any tab in acousterr's tab maker and we'll play it !!!
Now supports capo and sound effects for vibrato/pull-off/hammer/bends/mutes etc !!! Checkout help section
tabs and chords, guitar tabs, music transcription, music technology, deep learning, music information retrieval, transcribe into tabs & chords, chordify, music renditions, songsterr, reverbnation, tabulature, bollywood chords, ultimate guitar, yousician, guitar lessons, acoustic guitar, electric guitar, guitar tuner, 911 tabs