Guitar Tabs for Barbara

(/) Slide Up  (\) Slide Down  (h) Hammer On  (p) Pull Off  (b) Bend (r) Release (v) Vibrato (x) Muted

Tabs for Song : 

Song lyrics here
E|--0------------1p0--------0--1--0--------------0------------1p0--------3-----0--------------3------------1p0--
B|-----------3--------3--3-----------1--0---0p1-----------3--------3--0-----3--1--1--0---1p3-----------3--------
G|--------2--------------------------------------------2-----------------------0--------------------2-----------
D|-----0--------------------------------------------0--------------------------------------------0--------------
A|-----------------------0--------0---------0p---------------------------------3---------3p---------------------
E|--------------------------------------------------------------------3-----------------------------------------

Song lyrics here
E|--------------0-----------------------------------------0--------0--------0--------0-----
B|--3--0---1h3-----1--0-----------0--------1-----0--------1--------1--------1--------1-----
G|-----------------------2-----2--------2--------1-----------2--------2--------2--------2--
D|-----------------------------------------------2--------------2-----------------2--------
A|--------------0--------0-----------0-----------------0-----------------0-----------------
E|-----0-----------------------------------------0-----------------------------------------

Paste any tab in acousterr's tab maker and we'll play it !!!
Now supports capo and sound effects for vibrato/pull-off/hammer/bends/mutes etc !!! Checkout help section
tabs and chords, guitar tabs, music transcription, music technology, deep learning, music information retrieval, transcribe into tabs & chords, chordify, music renditions, songsterr, reverbnation, tabulature, bollywood chords, ultimate guitar, yousician, guitar lessons, acoustic guitar, electric guitar, guitar tuner, 911 tabs