Guitar Tabs for Banda Cg

(/) Slide Up  (\) Slide Down  (h) Hammer On  (p) Pull Off  (b) Bend (r) Release (v) Vibrato (x) Muted

Tabs for Song : 

Song lyrics here

    C9                D9                Em7              Em7
E|--------0-----------------0-----------------0-----------------0-----------
B|--3--------3-----3--3--------3-----3--3--------3-----3--3--------3-----3--
G|-----------------------2--------------------------------------------------
D|-----0--------0-----0-----------0--------2-----------------2--------------
A|--3-----------------------------------2-----------------2-----------2-----
E|--------------------------------------------------0-----------------------
    
    C9                D9                Em7              Em7
E|--------0-----------------0-----------------0-----------------0-----------
B|--3--------3-----3--3--------3-----3--3--------3-----3--3--------3-----3--
G|-----------------------2--------------------------------------------------
D|-----0--------0-----0-----------0--------2-----------------2--------------
A|--3-----------------------------------2-----------------2-----------2-----
E|--------------------------------------------------0-----------------------

    C9                D9                Em7              Em7
E|--------0-----------------0-----------------0-----------------0-----------
B|--3--------3-----3--3--------3-----3--3--------3-----3--3--------3-----3--
G|-----------------------2--------------------------------------------------
D|-----0--------0-----0-----------0--------2-----------------2--------------
A|--3-----------------------------------2-----------------2-----------2-----
E|--------------------------------------------------0-----------------------
   
    C9                D9                Em7              Em7
E|--------0-----------------0-----------------0-----------------0-----------
B|--3--------3-----3--3--------3-----3--3--------3-----3--3--------3-----3--
G|-----------------------2--------------------------------------------------
D|-----0--------0-----0-----------0--------2-----------------2--------------
A|--3-----------------------------------2-----------------2-----------2-----
E|--------------------------------------------------0-----------------------
    
   Am                 Am                D9                D9
E|--------0-----------------0-----------------0-----------------0-----------
B|--1--------1-----1--1--------1-----1--3--------3-----3--3--------3-----3--
G|-----------------------------------------2-----------------2--------------
D|-----2--------2--------2--------2-----0-----------0-----0-----------0-----
A|--0-----------------0-----------------------------------------------------
E|--------------------------------------------------------------------------

    G                 D/F#              Em7               Em7
E|--------0-----------------0-----------------0-----------------0-----------
B|--3--------3-----3--3--------3-----3--3--------3-----3--3--------3-----3--
G|--------------------------------------------------------------------------
D|-----------------------------------------2-----------------2--------------
A|-----0--------0--------0--------0-----2-----------------2-----------2-----
E|--3-----------------2-----------------------------0-----------------------

    C                 C7+               D9                D4
E|--------0-----------------0-----------------0-----------------3-----------
B|--1--------1-----1--0--------0-----0--3--------3-----3--3--------3-----3--
G|-----------------------------------------2-----------------2--------------
D|-----2-----------------2--------------0-----------0-----0-----------0-----
A|--3-----------3-----3-----------3-----------------------------------------
E|--------------------------------------------------------------------------
   
    Bm                Bm                Em                Em
E|--------2-----------------2-----------------0-----------------0-----------
B|--3--------3-----3--3--------3-----3--0--------0-----0--0--------0-----0--
G|--------------------------------------------------------------------------
D|-----4-----------------4--------------------------------------------------
A|--2-----------2-----2-----------2--------2--------2--------2--------2-----
E|--------------------------------------0-----------------0-----------------

    Am                Am                D                 D
E|--------0-----------------0-----------------2-----------------2-----------
B|--1--------1-----1--1--------1-----1--3--------3-----3--3--------3-----3--
G|-----------------------------------------2-----------------2--------------
D|-----2-----------------2--------------0-----------0-----0-----------0-----
A|--0-----------0-----0-----------0-----------------------------------------
E|--------------------------------------------------------------------------

    G                 D/F#              Em7               Em7
E|--------0-----------------0-----------------0-----------------0-----------
B|--3--------3-----3--3--------3-----3--3--------3-----3--3--------3-----3--
G|--------------------------------------------------------------------------
D|-----------------------------------------2-----------------2--------------
A|-----0-----------------0--------------2-----------------2-----------------
E|--3-----------3-----2-----------2-----------------0-----------------0-----

    Em7               Em7
E|--------0-----------------0-----------
B|--3--------3-----3--3--------3-----3--
G|--------------------------------------
D|-----2-----------------2--------------
A|--2-----------------2-----------2-----
E|--------------0-----------------------

    C9                 D9                Em7               Em7
E|--------0-----------------0-----------------0-----------------0-----------
B|--3--------3-----3--3--------3-----3--3--------3-----3--3--------3-----3--
G|-----------------------2--------------------------------------------------
D|-----0--------------0-----------0--------2-----------------2--------------
A|--3-----------3-----------------------2-----------------2-----------2-----
E|--------------------------------------------------0-----------------------

    C9                 D9                Em7               Em7
E|--------0-----------------0-----------------0-----------------0-----------
B|--3--------3-----3--3--------3-----3--3--------3-----3--3--------3-----3--
G|-----------------------2--------------------------------------------------
D|-----0--------------0-----------0--------2-----------------2--------------
A|--3-----------3-----------------------2-----------------2-----------2-----
E|--------------------------------------------------0-----------------------

Song lyrics here
E|-----
B|--2--
G|-----
D|-----
A|--2--
E|-----

Paste any tab in acousterr's tab maker and we'll play it !!!
Now supports capo and sound effects for vibrato/pull-off/hammer/bends/mutes etc !!! Checkout help section
tabs and chords, guitar tabs, music transcription, music technology, deep learning, music information retrieval, transcribe into tabs & chords, chordify, music renditions, songsterr, reverbnation, tabulature, bollywood chords, ultimate guitar, yousician, guitar lessons, acoustic guitar, electric guitar, guitar tuner, 911 tabs