Guitar Tabs for The Ballad Of Bpm #1

Owned, Produced and Published by BPM G.

=====================================================

Free to use and copy for your own music, with the kindness of sharing if you manage to. To see more 
about our company, check https://bpmguitars.com

We're VERY serious about helping out others in an effort to produce artists who once would be discouraged
to use their voice. So, this was created as part of our influencer's program. We want to share as much 
inspiration to help the creator get their emotions through. This allows them to use fresh benchmarks 
and innovative tones with a pre-set framework for their music. For more, stay tuned on our Facebook page. 
(https://www.facebook.com/bpmgg)

Check us out, we're doing new things with new spins. We want to improve on the boring guitar industry.
Get in contact directly at jack@bpmguitars.com

=====================================================

(/) Slide Up  (\) Slide Down  (h) Hammer On  (p) Pull Off  (b) Bend (r) Release (v) Vibrato (x) Muted

Tabs for Song : 
BPM : 200

e|--8---15---11---|-9---8---7---7---|-
B|----------------|-----------------|-
G|----------------|-----------------|-
D|----------------|-----------------|-
A|----------------|-----------------|-
E|----------------|-----------------|-



e|------------------|-----------------|-
B|------------------|-------------4---|-
G|--------------1---|-2-------4-------|-
D|----------2-------|-----------------|-
A|--2---4-----------|-----------------|-
E|------------------|-----0-----------|-



e|--0---
B|--1---
G|--1---
D|--2---
A|--3---
E|--0---



e|------------------|-------------------|---------
B|------1---1-------|-------------------|---------
G|------0---0-------|-------------------|-----2---
D|------2---2---2---|-----2---4-2---2---|-2---2---
A|--3---3---3---3---|-2-----------------|-----0---
E|------------------|-------------------|---------



e|------------------|-------------
B|------------------|-------------
G|--0---2---4---0---|-4---0---2---
D|--0---0-----------|-------------
A|------------------|-------------
E|--3---------------|-------------



e|--3---------------|-----------------|------------------------------------------
B|--3---------------|-----------------|----------------------------------------
G|--0---------------|-----------------|----------------------------------------
D|--0-------0---0---|-----------------|-0--------------------------------------
A|--2---2-----------|-4-------2---3---|-----2----------------------------------
E|--3---3-----------|-----3-----------|---------3---0--0--0--0--0--0--0--0--0--



e|--0---0-------0---|-0-0-------0-------|-0---0-0-------
B|--2---2-------2---|-3---------2-------|-2-------------
G|--2---2-------2---|-1---------2-------|-2---4---------
D|--2---2-------2---|-2-----------------|---------------
A|--0---0-----------|-----------0---0---|-0-------------
E|----------0-------|-------0-----------|-----4-----4---



e|--0---0---0-0-------|-0-----------0-----|-7---3-----------|-4---5-------
B|--1---1---1---------|-1---1---1---1-0---|-----2-------0---|-----1-------
G|--2---2-------------|-2---2-------------|-----------------|-------------
D|--------------------|-------------------|-----2-----------|---------2---
A|--0-----------------|---------0---2-----|-----------------|-------------
E|----------------0---|-------------------|---------0-------|-----0-------


e|--2---10-------7---|-----2-------2---|-7-3---3---2---0---|-1-------1-------|-----0---0---0---|-------------
B|--2--------2---2---|-----2-------2---|-------2---2-------|-------------4---|-1---1---1---0---|-2---1-------
G|--2--------2-------|-4-------4-------|---------------4---|---------4---4---|-----------------|---------4---
D|--4----------------|-----------------|-------------------|-----4-----------|-4---------------|-------------
A|-------------------|-----------------|-------------------|-----------------|-----------------|-------------
E|-------------------|-----------------|-------------------|-----------------|-----------------|-------------


e|------------------|-----------------|-----------------|-----------------|-----------------|-----------------|-----------------|-----
B|----------0-------|-----------------|-----------------|-----------------|-----------------|-----------------|-----------------|-----
G|--------------4---|-------------2---|-----4-------4---|-4---4---4---4---|-------------4---|-----------------|-----------------|-----
D|------2-----------|-----2---2-------|-0-------2-------|-----------------|-------------2---|-----------------|-----------------|-----
A|------------------|-0---------------|-----------------|-----------------|-----2-----------|-----------------|-----------------|-----
E|--3---------------|-----------------|-----------------|-----------------|-2-------0---0---|-0---1---2---1---|-2---1---1---1---|-1---




e|--8-2-------0-------|-0---0-------------|-
B|--1---------0-------|---------3-----3---|-
G|----------------2---|-------------------|-
D|--------2-----------|---------4-0-------|-
A|--0-----------------|-------------------|-
E|--------------------|-------------------|-



e|------------------|-----------------|-------------0---|-----0---4---0---|-2---3---3-------|---------0-------|-
B|--1-----------3---|-0---3-----------|-1---0---1-------|-----------------|-----------------|-3---0-----------|-
G|----------2-------|-1---1---4---2---|-----------------|-2-----------2---|-----------------|-----------------|-
D|------2-----------|-2---2---0---2---|-----------------|---------0---4---|-----2-----------|-----------------|-
A|--2-------0-------|-0---------------|---------0-------|-----------------|-------------0---|-----------------|-
E|------------------|-----------------|-----------------|-2---------------|-----------------|---------4---2---|-



e|------------------|-----------------|-------------
B|----------0-------|-1---0-----------|-------------
G|--1---1-----------|---------2-------|-------------
D|--2-----------2---|-------------2---|-1---2-------
A|------------------|---------0-------|---------3---
E|--0-------4-------|-----------------|-------------



e|------------------|-----------------|-----------------|-----0-----------|-----------------|-----------------|-----
B|------------------|-----------------|-----------------|-----------------|-----3-----------|-----------------|-----
G|--2-------2-------|-2-------2---0---|-2-------2-------|-0-------0---2---|---------2---1---|-0-------0-------|-----
D|------2-------2---|-----2-----------|-----2-------2---|-----------------|-2---------------|-----2-------4---|-2---
A|--0-------0-------|-0-------0-------|-0---------------|-----2---2---0---|-----2---0-------|-----------------|-----
E|------------------|-----------------|---------0-------|-----------------|-----------------|-----------------|-0---



e|--0---------------|-----0-----------|-----------------|-----------------|-
B|--------------0---|-1---------------|-----0-------0---|---------0---2---|-
G|------0-------2---|-------------4---|-2-------2-------|-4---------------|-
D|----------2---0---|---------2-------|---------2-------|-----2-----------|-
A|--------------2---|-0---------------|-----------------|-2-------2-------|-
E|--0---0---2-------|---------0-------|-0-----------0---|---------0-------|-



e|------------------|-----------------|-----------------|-
B|------------------|-----------------|-----------------|-
G|------------------|-----------------|---------2-------|-
D|--2---2---0---2---|-0---2---0---0---|-----2-------2---|-
A|--0---0-------0---|-----2-----------|-4---0---0-------|-
E|----------3-------|-3-------3---3---|-2---------------|-



e|------------------|-------------
B|----------0---0---|-------------
G|------0-----------|-2---0-------
D|--0-------0---0---|-0-------2---
A|------------------|-----3---2---
E|--0---------------|-------------



e|------------------|-----------------|-----------------|-----------------|---------0-------|-----------------|-----------------|-
B|------------------|-----------------|-----2-----------|-2---1-----------|-------------1---|-----0---2---1---|-2---2-----------|-
G|--------------0---|-4---2-------2---|-4-------4---4---|---------4---2---|-4---------------|-2---------------|---------4---2---|-
D|--2---2---4-------|---------4-------|-----------------|-----------------|-----4-----------|-----------------|-----------------|-
A|------------------|-----------------|-----------------|-----------------|-----------------|-----------------|-----------------|-
E|------------------|-----------------|-----------------|-----------------|-----------------|-----------------|-----------------|-


e|----------0-------|-----0-----------|-3-------
B|------3-----------|-3-------1-------|-----1---
G|--2-----------2---|-------------2---|---------
D|------------------|-----------------|---------
A|------------------|-----------------|---------
E|------------------|-----------------|---------



e|------------------|-----------------|-----------------|-----------------|-------------
B|------------------|-----------------|-----0-----------|-----------------|-------------
G|------------------|-----------------|-2---------------|-----------------|-------------
D|------4-------2---|-0---------------|-------------2---|-----------------|-0-----------
A|--0-------0-------|-----0---4---0---|---------3-------|-0---2---0---2---|-----2---4---
E|------------------|-----------------|-----------------|-----------------|-------------



e|------------------|-----------------|-----------------|-----------------|-----------------|-----------------|-----
B|------------------|-----------------|-----------------|-----------------|-----------------|-----------------|-----
G|------------------|-----------------|-----------------|-----------------|-----------------|-----------------|-----
D|------------------|-----------------|-----------------|-----------------|-----------------|-----------------|-----
A|--0---0---0---0---|-4---0---0---0---|-3---0---0---0---|-0---0---0---0---|-0---0---0---0---|-0---0---0---0---|-2---
E|------------------|-----------------|-----------------|-----------------|-----------------|-----------------|-----



e|------------------|-----------------|-----------------|-----------------|-----------------|-----
B|------------------|-----------------|-----------------|-----------------|-----------------|-----
G|------------------|-----------------|-----------------|-----------------|-----------------|-----
D|------------------|-----------------|-----------------|-----------------|-----------------|-----
A|------------------|-----------------|-----------------|-----------------|-----------------|-----
E|--3---2---0---3---|-3---3---3---3---|-3---3---3---3---|-3---3---3---3---|-3---3---3---3---|-3---



e|--17---15---14---14---|-14---15---17---14---|-19---14---10---11---|-14---12---15---14---|-12---10---9---10---|-9---7---15---15---|-10---
B|----------------------|---------------------|---------------------|---------------------|--------------------|-------------------|------
G|----------------------|---------------------|---------------------|---------------------|--------------------|-------------------|------
D|----------------------|---------------------|---------------------|---------------------|--------------------|-------------------|------
A|----------------------|---------------------|---------------------|---------------------|--------------------|-------------------|------
E|----------------------|---------------------|---------------------|---------------------|--------------------|-------------------|------



e|--6---13---15---17---|-15---14---15---15---|-17---17---19---17---|-15---17---15---10---|-7---
B|---------------------|---------------------|---------------------|---------------------|-----
G|---------------------|---------------------|---------------------|---------------------|-----
D|---------------------|---------------------|---------------------|---------------------|-----
A|---------------------|---------------------|---------------------|---------------------|-----
E|---------------------|---------------------|---------------------|---------------------|-----



e|------------------|-----------------|-
B|------------------|-----------------|-
G|------2---1---1---|-----------------|-
D|--2---2---2---2---|-2---2---2---2---|-
A|--2---2---2---2---|-2---2---2-------|-
E|--0---0---0---0---|-0---0---0-------|-
tabs and chords, guitar tabs, music transcription, music technology, deep learning, music information retrieval, transcribe into tabs & chords, chordify, music renditions, songsterr, reverbnation, tabulature, bollywood chords, ultimate guitar, yousician, guitar lessons, acoustic guitar, electric guitar, guitar tuner, 911 tabs