Guitar Tabs for Ballad, Daily Trained, Classical Awp #1

(/) Slide Up  (\) Slide Down  (h) Hammer On  (p) Pull Off  (b) Bend (r) Release (v) Vibrato (x) Muted

Tabs for Song : 
BPM : 200

e|--------------|-----0---0---
B|--3---3---0---|-----0---0---
G|--------------|-0-----------
D|--------------|-------------
A|--------------|-------------
E|--------------|-------------



e|------------------|-----------------|-----
B|--------------2---|-----------------|-----
G|--2-------2-------|-----2-------2---|-----
D|------0-----------|-0-------0-------|-0---
A|------------------|-----------------|-----
E|------------------|-----------------|-----



e|--3-----3-----
B|--3-0---3-0---
G|--0-----0-----
D|--------------
A|--3-----3-----
E|--------------



e|--17---
B|-------
G|-------
D|-------
A|-------
E|-------



e|------------------|-----------------|-----------------|-----
B|--4---4-------3---|-3---2---1-------|-----------------|-----
G|--4---4-------2---|-2---2---2-------|-------------0---|-----
D|--2---2-------0---|-0---0-----------|-----------------|-----
A|------------------|---------4---0---|-2---3---2-------|-3---
E|--0-------0-------|-----------------|-----------------|-----



e|------------------|-----------------|-----
B|--1---------------|-------------3---|-2---
G|------------------|-----------------|-----
D|------4---2---0---|-----2---4-------|-----
A|------------------|-2---------------|-----
E|------------------|-----------------|-----



e|--------------4---|-5-------4---1---|-0---4---4-------|-----
B|--2---2-----------|-----4-----------|-------------2---|-----
G|--2---2-----------|-----------------|-----------------|-1---
D|--2---2-----------|-----------------|-----------------|-----
A|--0---0-----------|-----------------|-----------------|-----
E|----------0-------|-----------------|-----------------|-----



e|------------------|-----------------|-----------------|-----
B|------------------|-------------3---|-----------------|-----
G|--2---3-----------|---------0-------|-0-----------0---|-0---
D|------3---1---3---|-1---3-----------|-----3---4-------|-----
A|------1---1---3---|-----------------|-----------------|-----
E|--1-------1---1---|-----------------|-----------------|-----



e|------------------|-----------------|-----------------|-----------------|-----------------|-------------
B|------------------|-------------0---|-----------------|-----------------|-1---2-------2---|-----1-------
G|--2---3---2---0---|-----2---0-------|-3---0---2---3---|-2---0---2---3---|---------3-------|-3-------3---
D|------------------|-3---------------|-----------------|-----------------|-----------------|-------------
A|------------------|-----------------|-----------------|-----------------|-----------------|-------------
E|------------------|-----------------|-----------------|-----------------|-----------------|-------------



e|------------------|-----------------|-----------------|-----------------|-----------------|-----------------|-----------------|-----------------|-----------------|-----------------|-------------0---|-
B|------------------|-----------------|-----------------|-----------------|-----------------|-------------0---|-----------------|-----------------|-----------------|-----0-------0---|-----------------|-
G|------------------|-----------------|-----------------|---------3---2---|-3---2-----------|-----0-------0---|-----------------|-3---2---0---2---|-0---3---2---0---|-2---0---0-------|-0-------1-------|-
D|------------------|-----------------|-----------------|---------3---2---|-3---2-----------|-4---0---4-------|-----------------|-----------------|-----------------|-----------------|-0-------0-------|-
A|------------------|-----------------|-----------------|---------1---0---|-1---0-----------|-4-------4-------|-0---0---0---0---|-----------------|-----------------|-----3-----------|---------2-------|-
E|--0---0---0---0---|-0---0---0---0---|-0---0---0---0---|-0---0-----------|---------0---0---|-2---3---2-------|-----------------|-----------------|-----------------|-----3-----------|-0---0-----------|-



e|------------------|-----------------|-----------------|-------------1---|-----------------|-0-------
B|----------0-------|-----------------|-----------------|-4---3-----------|-----0-----------|---------
G|------2-----------|-2-------2-------|-----4---2---0---|-----------------|-2-------0---2---|-----2---
D|------------------|-------------2---|-----------------|-----------------|-----------------|---------
A|--0-----------0---|-----0-----------|-0---2---0-------|-0---------------|-------------0---|---------
E|----------0-------|-----------------|-----------------|---------0-------|-----3-----------|---------



e|------------------------|-----------------|-----------------|-----------------|-----------------|-----------------|-----
B|------------------------|-----------------|-----------------|-----------------|-----------------|-----------------|-----
G|------------------------|-----------------|-----------------|-----------------|-----------------|-----------------|-----
D|--------------------4---|---------4-------|-4---4-------4---|-----4-----------|-4---------------|-4-----------4---|-----
A|------------------------|---------2-------|-2---2-------2---|-----2-----------|-----------------|-0---2-----------|-----
E|--2-0---2-0---2-0---2---|-2---2-------2---|---------2-------|-2-------2---0---|-2---2---2---2---|---------2---2---|-2---



e|------------------|-----------------|-----------------|-----------------|-----
B|------------------|-----------------|-----------------|-----------------|-----
G|------------------|-----------------|-----------------|-----------------|-----
D|----------4-------|-----4-----------|-4-----------0---|---------4---0---|-----
A|--2---2-------0---|-0-------0---0---|---------0-------|-----0-----------|-----
E|------------------|-----------------|-----3-----------|-0---------------|-3---



e|------------------|-----------------|-----------------|-----------------|-----------------|---------
B|------------------|-----------------|-----------------|-----------------|-----------------|---------
G|--------------0---|-------------0---|-----0-----------|-----0-----------|-----------------|---------
D|----------2-------|-----2-----------|-------------2---|---------0-------|-----4-----------|-4-------
A|--2---0-----------|-0-------0-------|-0-------0-------|-0-----------0---|-2-------0-------|-----2---
E|------------------|-----------------|-----------------|-----------------|-------------3---|---------



e|------------------|-----------------|-------------
B|------------------|---------0-------|-------------
G|------------------|---------0-------|-------------
D|--0-----------3---|-0---------------|-4-------4---
A|------0---2-------|-----0-------0---|-0---0---0---
E|------------------|-----------------|-------------



e|----------
B|----------
G|----------
D|----------
A|--0---0---
E|----------



e|------------------|-----------------|-------------
B|--------------1---|-0---------------|-------------
G|------2-----------|-----2---0-------|-------------
D|--0-------2-------|-------------2---|-------------
A|--0---------------|-----------------|-3---3---3---
E|------------------|-----------------|-------------



e|--3---4---1-------|-3---2---3---2---|-----2---3---1---|-7---9---7---1---|-
B|--------------2---|-----------------|-4---------------|-----------------|-
G|------------------|-----------------|-----------------|-----------------|-
D|------------------|-----------------|-----------------|-----------------|-
A|------------------|-----------------|-----------------|-----------------|-
E|------------------|-----------------|-----------------|-----------------|-



e|--6---10---2---10---|-7---10---7---2---|-7---10---7---10---|-5---2-----------|-----2---2---3---|-2-------2---3---|-2-------2-------|---------2---3---|-2---------------|-
B|--------------------|------------------|-------------------|---------4---4---|-4---------------|-----4-----------|-----4-------4---|-2---4-----------|-----4---2---4---|-
G|--------------------|------------------|-------------------|-----------------|-----------------|-----------------|-----------------|-----------------|-----------------|-
D|--------------------|------------------|-------------------|-----------------|-----------------|-----------------|-----------------|-----------------|-----------------|-
A|--------------------|------------------|-------------------|-----------------|-----------------|-----------------|-----------------|-----------------|-----------------|-
E|--------------------|------------------|-------------------|-----------------|-----------------|-----------------|-----------------|-----------------|-----------------|-



e|------2---3---2---|-------------2---|-7---5---3---2---|-----
B|--4---------------|-4---2---4-------|-----------------|-----
G|------------------|-----------------|-----------------|-0---
D|------------------|-----------------|-----------------|-----
A|------------------|-----------------|-----------------|-----
E|------------------|-----------------|-----------------|-----



e|------2---3---5---|-3---2---3---2---|-0---2---3---2---|-0---2---0---
B|--4---------------|-----------------|-----------------|-------------
G|------------------|-----------------|-----------------|-------------
D|------------------|-----------------|-----------------|-------------
A|------------------|-----------------|-----------------|-------------
E|------------------|-----------------|-----------------|-------------



e|--2---0---2---0---|-10---
B|------------------|------
G|------------------|------
D|------------------|------
A|------------------|------
E|------------------|------



e|--
B|--
G|--
D|--
A|--
E|--



e|--
B|--
G|--
D|--
A|--
E|--



e|--
B|--
G|--
D|--
A|--
E|--



e|--
B|--
G|--
D|--
A|--
E|--



e|--3-----3-----3-----3-----|-3-----5-1---5-1---5-1---|-5-1---6-1---1---
B|--3-----3-----3-----3-----|-3-----2-----2-----2-----|-1-----2-----3---
G|--3-0---3-0---3-0---3-0---|-3-0---2-----2-----2-----|-2-----3-----3---
D|--0-----0-----0-----0-----|-0-----0-----0-----------|-3-----3-----3---
A|--------------------------|-------------------------|-3-----1-----1---
E|--3-----3-----3-----3-----|-3-----------------1-----|-1-----3---------



e|--7-2---2---2---2---|-----------
B|--3-----3---3---3---|-----------
G|--3-----3---3---3---|-----------
D|--1-----4---4---4---|-----------
A|------------2-------|-----------
E|--3-----2-------3---|-4-3---0---



e|--------------
B|----------0---
G|------4-------
D|--------------
A|--------------
E|--0-----------



e|----------0-------|-----------------|-----------------|-----------------|-----
B|----------1-------|-----------------|-----------------|-----------------|-----
G|----------2-------|---------2-------|-----------------|-----------------|-----
D|----------2-------|-----2-----------|-----------------|-----2---0-------|-----
A|--2---2---0---0---|-0-----------3---|-2---0---0---4---|-0-----------4---|-0---
E|------------------|-----------------|-----------------|-----------------|-----



e|------------------|-----2-----------|-----------------|-----------------|-----------------|-----------------|-----
B|------------------|-2-------4---2---|-1---------------|-----------------|-0-------0-------|-----------------|-----
G|--------------4---|-----------------|-----4-----------|-----------------|-----------------|-----------------|-----
D|------2---4-------|-----------------|-----------------|---------0---2---|-----2-------2---|-0---2---0-------|-2---
A|--4---------------|-----------------|---------0-------|-0---4-----------|-----------------|-------------4---|-----
E|------------------|-----------------|-------------4---|-----------------|-----------------|-----------------|-----



e|------------------|-----------------|-----------------|-----------------|-------------
B|------------------|-----------------|-----------------|-------------0---|-------------
G|------------------|-----------------|-----------------|-----------------|-4---4---4---
D|------------------|---------2---0---|-----------------|-------------3---|-2---0---2---
A|------------------|-----------------|-----------------|-----------------|-------------
E|--0---0---0---0---|-0---0-----------|-0---0---0---0---|-0---0---0-------|-------------



e|------------------|-----------------|-----------------|-----------------|-----------------|-----------------|-----------------|-----------------|-
B|------------------|-----------------|-----------------|-----------------|-----------------|-----------------|-----------------|-----------------|-
G|------------------|-----------------|-----------------|-----------------|-----------------|-----------------|-----------------|-----------------|-
D|------------------|-------------3---|-3---3---3---3---|-3---3---3---3---|-3---3---2---2---|-0---2---3---2---|-0---0-----------|-----------------|-
A|------------------|-------------1---|-1---1---1---1---|-1---1---1---1---|-1---1---0---0---|-----0---1---0---|-----------------|-----------------|-
E|--0---0---0---0---|-0---0---0-------|-----------------|-----------------|-----------------|-3---------------|-3---3---0---0---|-0---0---0---0---|-



e|------24---22---24---|-22---------------|-----------------|-----------------|---------0-------|-------------
B|---------------------|------------------|-----------------|-----------------|-1---2---0---2---|-2---2---4---
G|--4------------------|------------------|-----------------|-----------------|-----2-------2---|-2-----------
D|---------------------|--------------4---|-----------------|-----4-----------|-----------------|-------------
A|---------------------|------------------|-----------------|-----------------|-0---------------|-------------
E|---------------------|------2---2-------|-2---2---2---2---|-2-------2---2---|-----------------|-------------



e|--4---6---4---2---|-----2-----------|-------------2---|-4-------2-------|-----2-----------|---------
B|------------------|-4-------4---2---|---------4-------|-----4-------4---|-4-------4---2---|-2---4---
G|------------------|-----------------|-4---2-----------|-----------------|-----------------|---------
D|------------------|-----------------|-----------------|-----------------|-----------------|---------
A|------------------|-----------------|-----------------|-----------------|-----------------|---------
E|------------------|-----------------|-----------------|-----------------|-----------------|---------



e|------------------|-----------------|-----------------|---------
B|------------------|-----------------|-----------------|---------
G|--4---2---4---2---|-0---2---4---2---|-4---2---2-------|---------
D|------------------|-----------------|-------------4---|-4---2---
A|------------------|-----------------|-----------------|---------
E|------------------|-----------------|-----------------|---------



e|------------------|-----------------|-------------
B|------------------|-----------------|-------------
G|----------2---2---|-2---4---2---0---|-2-----------
D|--4---4-----------|-----------------|-----3---2---
A|------------------|-----------------|-------------
E|------------------|-----------------|-------------



e|------------------|-----------------|-----------------|-----------------|-----------------|-----------------|-------------
B|------------------|-----------------|-----------------|-----------------|-----------------|-----------------|-------------
G|------------------|-----------------|-----------------|-----------------|-----------------|-----------------|-------------
D|------2---2---4---|---------4---0---|-2---4---4---2---|-2---4---2-------|-0-------0---0---|-0---0---2---2---|-2---0---0---
A|--2---------------|-2---0-----------|-----------------|-------------4---|-----4-----------|-----------------|-------------
E|------------------|-----------------|-----------------|-----------------|-----------------|-----------------|-------------



e|------------------|---------
B|------------------|---------
G|--2---0-----------|---------
D|----------2---0---|-2-------
A|------------------|-----2---
E|------------------|---------



e|------------------|-----------------|-----------------|-------------
B|------------------|-------------2---|-2---2-----------|-------------
G|--0---2---0-------|-------------2---|-2---2-----------|-------------
D|--------------4---|-2---0---2---0---|-0---0---0---2---|-0-----------
A|------------------|-----------------|-----------------|-----2---0---
E|------------------|-----------------|-----------------|-------------



e|------------------|-----------------|-----
B|--2---2---2---2---|-2---------------|-2---
G|--2---2---2---2---|-2---------------|-2---
D|--0---0---0---0---|-0---3---2---0---|-0---
A|------------------|-----3---2-------|-----
E|------------------|-----3---2---3---|-----



e|--1---3---3---3---|-3-----3---
B|--0---0-------2---|-3-0---2---
G|------0---0---0---|-0-----0---
D|--3-------0-------|-----------
A|------------------|-3---------
E|------------------|-----------



e|--3-------3---3---|-----------------|-----
B|--2---0---2---2---|-2-------0---0---|-----
G|--0---0---0---0---|-2---0---2---0---|-2---
D|------------------|-----------------|-4---
A|------------------|-----------------|-----
E|------------------|-----------------|-----



e|------------------|-----------------|-------------------|-----------------|-
B|--0---1---1---1---|-1---------------|---------------0---|-0-------0---0---|-
G|--2---2---2---2---|-2---2---2---0---|-0---2---4-0---0---|-0---0---0---0---|-
D|--2---2---2---2---|-2---2---2---2---|-2---4-------------|-----2-----------|-
A|------------------|-----------------|-------------------|-----------------|-
E|------------------|-----------------|-------------------|-----------------|-



e|--
B|--
G|--
D|--
A|--
E|--



e|--1---5---2---1---|-4---5---1---5---|-7---5---1---
B|------------------|-----------------|-------------
G|------------------|-----------------|-------------
D|------------------|-----------------|-------------
A|------------------|-----------------|-------------
E|------------------|-----------------|-------------



e|------------------|-----------------|-----------------|-
B|--2---------------|-----------------|-----1---1---2---|-
G|--2---4---2---0---|-0---2---4---3---|-2---2---2---2---|-
D|------------------|-2---4---4---4---|-4---3---3---2---|-
A|------------------|-----------------|-----------------|-
E|------------------|-----------------|---------1-------|-



e|------------------|-----------------|-----------------|-------------
B|--2---3---3-------|-3---3-----------|-----------------|-------------
G|--2---2---2---2---|-2---2---2---2---|-2---2---2---2---|-2---2---2---
D|--0---0---0---2---|-0---0---0---0---|-0---0---0---0---|-0---0---0---
A|--------------0---|-0---0---0---0---|-0---0---0---0---|-0---0---0---
E|------------------|-----------------|-----------------|-------------



e|------------------|-----------------|-----------------|-------------
B|------------------|-----------------|-----------------|-------------
G|----------4-------|-----------------|-----------------|-----0-------
D|--0---2---2---2---|-2---2---2---2---|-2---2---2---2---|-3---0---0---
A|--------------0---|-0---0---0---0---|-0---0---0---0---|-1-------0---
E|------------------|-----------------|-----------------|-------------



e|------------------|-----------------|-----------------|-----------------|-------------
B|------------------|-----------------|-----------------|-----------------|-------------
G|------------------|-----------------|-----------------|-----------------|-------------
D|------------------|-----------------|-----------------|-----------------|-------------
A|--0---0---0---0---|-0---0---0---0---|-0---0---0---0---|-0---0---0---0---|-0---0---0---
E|------------------|-----------------|-----------------|-----------------|-------------



e|--12-5-1---12-7---14-7---12-7---|-10-10---12---12---10---|-12---15---40---14---|-
B|--------------------------------|------------------------|---------------------|-
G|--------------------------------|------------------------|---------------------|-
D|--------------------------------|------------------------|---------------------|-
A|--------------------------------|------------------------|---------------------|-
E|--------------------------------|------------------------|---------------------|-



e|--22---19---15---15---|-19---15---20---20---|-17---20---15---13---|-15---12---13---15---|-12---7---
B|----------------------|---------------------|---------------------|---------------------|----------
G|----------------------|---------------------|---------------------|---------------------|----------
D|----------------------|---------------------|---------------------|---------------------|----------
A|----------------------|---------------------|---------------------|---------------------|----------
E|----------------------|---------------------|---------------------|---------------------|----------



e|--13---15---13---13---|-10---10---12---13---|-15---13---13---17---|-13---10---10---18---|-----------------|-----------------|-----------------|-----------------|-----------------|-----
B|----------------------|---------------------|---------------------|---------------------|-----------------|-----------------|-----------------|-----------------|-----------------|-----
G|----------------------|---------------------|---------------------|---------------------|-2---2---2---3---|-4---3-----------|-----------------|---------2-------|-----2-----------|-2---
D|----------------------|---------------------|---------------------|---------------------|-0---0---0---0---|-0---0---0---0---|-0---0---0---0---|-0---0---0---0---|-0---0---0---0---|-0---
A|----------------------|---------------------|---------------------|---------------------|-----------------|-----------------|-----------------|-----------------|-----------------|-----
E|----------------------|---------------------|---------------------|---------------------|-----------------|-----------------|-----------------|-----------------|-----------------|-----



e|------------------|-----------------|-----------------|---------
B|------------------|-----------------|-----------------|---------
G|------4-------4---|---------4-------|-4---------------|-4-------
D|--2-------2-------|-2---2-------2---|-----2---2---2---|-----2---
A|------------------|-----------------|-----------------|---------
E|------------------|-----------------|-----------------|---------



e|------------------|-----------------|-----------------|-----------------|-----------------|-1---------------|-
B|--1-------1---1---|-----1---1-------|-----1---1-------|-1---1---1---1---|-2---1-------4---|-----4---1---4---|-
G|------------------|-4-----------0---|-4-----------4---|-----------------|-----------------|-----------------|-
D|------4-----------|-----------------|-----------------|-----------------|---------4-------|-----------------|-
A|------------------|-----------------|-----------------|-----------------|-----------------|-----------------|-
E|------------------|-----------------|-----------------|-----------------|-----------------|-----------------|-



e|------------------|-----------------|-----
B|--2---4---4---4---|-2---4---4---2---|-1---
G|------------------|-----------------|-----
D|------------------|-----------------|-----
A|------------------|-----------------|-----
E|------------------|-----------------|-----


e|------3-----------|-----------------|---------
B|--0-------0-------|-----------------|-----2---
G|--0---------------|-----------------|---------
D|------------------|-------------2---|---------
A|--------------0---|-0---0---0-------|-0-------
E|------------------|-----------------|---------



e|----------
B|--2---2---
G|----------
D|----------
A|----------
E|----------


e|------------------|---------2---
B|--2---4---2---4---|-4---2-------
G|------------------|-------------
D|------------------|-------------
A|------------------|-------------
E|------------------|-------------
tabs and chords, guitar tabs, music transcription, music technology, deep learning, music information retrieval, transcribe into tabs & chords, chordify, music renditions, songsterr, reverbnation, tabulature, bollywood chords, ultimate guitar, yousician, guitar lessons, acoustic guitar, electric guitar, guitar tuner, 911 tabs