Guitar Tabs for Bahut Pyar Karte Hain - Saajan Tabs

(/) Slide Up  (\) Slide Down  (h) Hammer On  (p) Pull Off  (b) Bend (r) Release (v) Vibrato

Tabs for Song : Bahut Pyar Karte Hain

Bahut pyaar karte hain tumko sanam
E|--------------------------------------------------------
B|-----5--5--7--5--7--10-8--10-7-----------------7--5--5--
G|--4-----------------------------9---7\5--5--7-----------
D|--------------------------------------------------------
A|--------------------------------------------------------
E|--------------------------------------------------------

Bahut pyaar karte hain tumko sanam
E|--------------------------------------------------------
B|-----5--5--7--5--7--10-8--10-7-----------------7--5--5--
G|--4-----------------------------9---7\5--5--7-----------
D|--------------------------------------------------------
A|--------------------------------------------------------
E|--------------------------------------------------------

Kasam chaahe le lo
E|--7--7--7-----7--10-8--10-7-----------7--
B|-----------10----------------10-8--10----
G|-----------------------------------------
D|-----------------------------------------
A|-----------------------------------------
E|-----------------------------------------

Kasam chaahe le lo
E|--7--7--7-----7--10-8--10-7--------
B|-----------10----------------10-8--
G|-----------------------------------
D|-----------------------------------
A|-----------------------------------
E|-----------------------------------

Khuda ki kasam
E|-----------------------------------
B|--10-8--7--5--7--8--7--10-8--7--5--
G|-----------------------------------
D|-----------------------------------
A|-----------------------------------
E|-----------------------------------

Bahut pyaar karte hain tumko sanam
E|--------------------------------------------------------
B|-----5--5--7--5--7--10-8--10-7-----------------7--5--5--
G|--4-----------------------------9---7\5--5--7-----------
D|--------------------------------------------------------
A|--------------------------------------------------------
E|--------------------------------------------------------
tabs and chords, guitar tabs, music contests, music covers, songsterr, reverbnation, renditions, tabulature, bollywood chords, ultimate guitar, yousician, guitar lessons, torrins, fender, gibson, acoustic guitar, electric guitar, youtube covers, gootar, guitar tuner, A-Z tabs, 911 tabs