Guitar Tabs for Queen

Crazy little thing called love:

intro:
E|--2--2--3--2--2--2--2--2--3--2--2--
B|-----------------------------------
G|-----------------------------------
D|-----------------------------------
A|-----------------------------------
E|-----------------------------------

verse: 
    DX8      GX4   CX2   GX4
E|--2--------3-----0-----3--------
B|--3--------3-----1-----3--------
G|--2--------0-----0-----0--------
D|--0--------0-----2-----0--------
A|-----------2-----3-----2--------
E|-----------3-----------3--------
tabs and chords, guitar tabs, music transcription, music technology, deep learning, music information retrieval, transcribe into tabs & chords, chordify, music renditions, songsterr, reverbnation, tabulature, bollywood chords, ultimate guitar, yousician, guitar lessons, acoustic guitar, electric guitar, guitar tuner, 911 tabs