Guitar Tabs for Times Like These

e||-5-5-5-5-5--5-5-|-5-5-5--5-5-5---|-5-5-5-5-5--5-5-|-5-5-5--5-5-5----||
B||-3-3-3-3-3--3-3-|-3-3-3--3-3-3---|-3-3-3-3-3--3-3-|-3-3-3--3-3-3----||
G||-5-5-5-5-5--5-5-|-5-5-5--5-5-5---|-5-5-5-5-5--5-5-|-5-5-5--5-5-5----||
D||-0-0-0-0-0--0-0-|-0-0-0--0-0-0---|-0-0-0-0-0--0-0-|-0-0-0--0-0-0----||
A||-0-5-5-0-5--0-5-|-5-0-5--0-5-5---|-0-5-5-0-5--0-5-|-5-0-5--0-5-5----||
E||----------------|----------------|----------------|-----------------||

  D
                           3/4
  Gtr II
e|-------------------------|-------------------|
B|-------------------------|-------------------|
G|-------------12-11-------|-------12-11-------|
D|--0-12-10--0--------0-12-|-10--0-------------|
A|-------------------------|-------------12-10-|
E|-------------------------|-------------------|

verse

e||-------0-(0)-----2-|-(2)-----0-(0)-------|
B||-----3-------3-----|-----3---------3-----|
G||---2-----------2---|-------2---------2---|
D||-0-----------------|---------------------|
A||-------------------|---------------------|
E||-------------------|---------------------|

  Am
e|-------3-(3)-----0-|-(0)-----3-(3)--------|
B|-------------1-----|-----1---------1------|
G|-----2---------2---|-------2--------------|
D|---2---------------|----------------------|
A|-0-----------------|-----------------2----|
E|-------------------|----------------------|
 |

  
e|-------0-(0)-------|-------0-(0)-------|-5-5-5-5-5--5-5-|-5-5-5--5-5-5---||
B|-------1-(1)-------|-------3-(3)-------|-3-3-3-3-3--3-3-|-3-3-3--3-3-3---||
G|-----0-------0-----|-------------0-----|-5-5-5-5-5--5-5-|-5-5-5--5-5-5---||
D|---2-----------2---|-----2---------2---|-0-0-0-0-0--0-0-|-0-0-0--0-0-0---||
A|-3---------------3-|---2-------------2-|-0-5-5-0-5--0-5-|-5-0-5--0-5-5---||
E|-------------------|-0-----------------|----------------|----------------||

chorus:


E|--3-----3-----2--
B|--3-----3-----3--
G|--0-----------2--
D|--2-----2-----0--
A|--3-----2--------
E|--------0--------




tabs and chords, guitar tabs, music transcription, music technology, deep learning, music information retrieval, transcribe into tabs & chords, chordify, music renditions, songsterr, reverbnation, tabulature, bollywood chords, ultimate guitar, yousician, guitar lessons, acoustic guitar, electric guitar, guitar tuner, 911 tabs