Bass Tabs for Foo Fighters - Times Like These

Foo Fighters - Times Like These

Intro
G|-----------------------------------
D|-----------------------------------
A|-----------------------------------
E|--10\0-----10\0-----10\0-----10\0--

G|-----------------------------------------------------
D|-----------------------------------------------------
A|-----------------------------------------------------
E|--10-10-10-10-10-10-8--8--8--8--8--8--7--7--7--7--7--

G|-----------------------------------------------------
D|----------------------------------------------------- 2x
A|--5--5--5--5--5--5--5--3--3--3--3--3--3--2--2--2--2--
E|-----------------------------------------------------

Pre-Verse & Pre-Chorus
G|--------------------------------------------
D|--------------------------------------------
A|--0--5--5--0--5--0--5--5--0--5--5--0--0--5--
E|--------------------------------------------

Verse
G|--------------------------------------------
D|--------------------------------------------
A|--5--5--5--5--5--5--5--5--------------------
E|--------------------------5--5--5--5--5--5--

G|--------------------------------------------
D|--------------------------------------------
A|--3--3--3--3--3--3--3-----------------------
E|-----------------------0--0--0--0--0--0--0--

Pre-Verse & Pre-Chorus
G|--------------------------------------------
D|--------------------------------------------
A|--0--5--5--0--5--0--5--5--0--5--5--0--0--5--
E|--------------------------------------------

Chorus
G|-----------------------------------------------------
D|-----------------------------------------------------
A|--3--3--3--3--3--3--3--7--7--7--7--7--7--7--5--5--5--
E|-----------------------------------------------------

3
G|-----------------------------------------------------------------------------------------
D|-----------------------------------------------------------------------------------------
A|--5--5-----5--5--5-----5--5--5-----5--5--5-----3--3-----3--3--3-----3--3--3-----3--3--3--
E|-----------------------------------------------------------------------------------------

G|--------------------------------------
D|--------------------------------------
A|--2--2-----2--2--2-----2--2--0--2--0--
E|--------------------------------------

Ending
G|-----------------------------------------
D|-----------------------------------------
A|--3--7--5--3-----5--3--7--9--10-7--5--3--
E|--------------0--------------------------
tabs and chords, guitar tabs, music transcription, music technology, deep learning, music information retrieval, transcribe into tabs & chords, chordify, music renditions, songsterr, reverbnation, tabulature, bollywood chords, ultimate guitar, yousician, guitar lessons, acoustic guitar, electric guitar, guitar tuner, 911 tabs