Guitar Tabs for Avengers Main Theme Song

(/) Slide Up  (\) Slide Down  (h) Hammer On  (p) Pull Off  (b) Bend (r) Release (v) Vibrato (x) Muted

Tabs for Song :Avengers Main Theme Song 


E|-----------------------------------------------------------0-----4--4--4--4-----1--1--1-----1--1--0-----0--0--0--0--------------------------------
B|--3--3--3-----3--3--3-----3--3--3--3-----4--4--4-----4--4-----------------------------------------------------------4--4--4-----4--4--------1-----
G|--------------------------------------------------------------------------------------------------------------------------------------3-----------
D|--------------------------------------------------------------------------------------------------------------------------------------------------
A|--------------------------------------------------------------------------------------------------------------------------------------------------
E|--------------------------------------------------------------------------------------------------------------------------------------------------

E|-----------------------------------------------------------0-----0--0--0--0-----1--1--1-----1--1--0-----0--0--0--0--------------------------------------
B|--3--3--3-----3--3--3-----3--3--3--3-----4--4--4-----4--4--------------------------------------------------------------4--4--4-----4--4--------1--------
G|-----------------------------------------------------------------------------------------------------------------------------------------3-----------0--
D|--------------------------------------------------------------------------------------------------------------------------------------------------------
A|--------------------------------------------------------------------------------------------------------------------------------------------------------
E|--------------------------------------------------------------------------------------------------------------------------------------------------------

E|--------------------------------------------------------------------------------------------------------------------------
B|--3-----1--------1--3--3-----------3--1--------------------------3--1--------1--3--3-----------3--1-----------------------
G|-----------3--3-----------0--------------3--3-----2-----0--------------3--3-----------0--------------3--3-----2-----------
D|--------------------------------------------------------------------------------------------------------------------------
A|--------------------------------------------------------------------------------------------------------------------------
E|--------------------------------------------------------------------------------------------------------------------------

E|--------------0--------------------3--------4--3-----------
B|--------3-----------1-----3--------------------------------
G|--0--------------------------3--0--------------------------
D|-----------------------------------------------------------
A|-----------------------------------------------------------
E|-----------------------------------------------------------

E|-----8-----5-----1--------------0-----------0--------------
B|--1--------------------1--3-----------4--------------------
G|-----------------------------------------------------------
D|-----------------------------------------------------------
A|-----------------------------------------------------------
E|-----------------------------------------------------------

E|--0--0-----7--5--------3-----2-----0--------0-----0-----7--9-----5-----7--------0--------------
B|-----------------------------------------------------------------------------------------------
G|-----------------------------------------------------------------------------------------------
D|-----------------------------------------------------------------------------------------------
A|-----------------------------------------------------------------------------------------------
E|-----------------------------------------------------------------------------------------------

E|--0-----0-----7--5-----3-----2--------0-----0--2--------0-----0--2-----0--=
B|-----------------------------------3-----------------3--------------------
G|--------------------------------------------------------------------------
D|--------------------------------------------------------------------------
A|--------------------------------------------------------------------------
E|--------------------------------------------------------------------------



Paste any tab in acousterr's tab maker and we'll play it !!!
Now supports capo and sound effects for vibrato/pull-off/hammer/bends/mutes etc !!! Checkout help section
tabs and chords, guitar tabs, music transcription, music technology, deep learning, music information retrieval, transcribe into tabs & chords, chordify, music renditions, songsterr, reverbnation, tabulature, bollywood chords, ultimate guitar, yousician, guitar lessons, acoustic guitar, electric guitar, guitar tuner, 911 tabs