Bass Tabs for Aufsklingklangkommstan

(/) Slide Up  (\) Slide Down  (h) Hammer On  (p) Pull Off  (b) Bend (r) Release (v) Vibrato (x) Muted

Tabs for Song : 
BPM :170

Song lyrics here
G|-----------------------------------------------------------------------------------------------
D|--2-----------------------2-----------------------------------------------2--------------------
A|-----0--3--5--0--------------0--3--5--0--------------------------------------0--3--5--0--------
E|-----------------3--0--------------------3--0-----3--3--2--0--5--3--2--------------------3--0--

Song lyrics here
G|--
D|--
A|--
E|--

Paste any tab in acousterr's tab maker and we'll play it !!!
Now supports capo and sound effects for vibrato/pull-off/hammer/bends/mutes etc !!! Checkout help section

Piano Tabs for Aufsklingklangkommstan






2|--e-----------a--g--e--e--a--c-----a--g--e--e--
2|--b-----------------b--b-----g-----------b--b--
2|-----------------------------------------------
3|--e-----c--d--a--g--e--e--d--c--d--e--g--e--e--
3|--------a-----e-----------a--------a-----g--g--
3|-----------------------------------------b--b--
4|--e--a--c--d--a-----e--e-----c--d--a--g--------
4|--g-----d-----------g--g-----g-----------------
4|--b-----------------b--b-----e-----------------
5|-----D#----d--c--------------------d--c--------
5|-----a--------e--------------------e--d--------


2|--
3|--
4|--
5|--

Guitar Tabs for Aufsklingklangkommstan






E|--0--1--3--1--0--3--0--0-----------------------0--0--0--3--1--0--3--0--0--0--0--0--2--0--3--0--0--0--
B|--0--3--4--3--2--3--0--0-----------------------0--0--1--4--3--2--3--0--0--0--1--1--3--2--3--0--0--0--
G|--0--3--5--2--2--3--1--1-----------------------0--1--2--5--2--2--4--0--0--1--2--0--2--2--4--1--0--0--
D|--2--3--5--0--2--5--2--2--2--------------------2--2--2--5--0--2--5--2--2--2--2--2--0--2--5--2--2--2--
A|--2--1--3-----0--5--2--2-----0--3--5--0--------2--2--0--3-----0--5--2--2--2--0--3-----0--5--2--2--2--
E|--0--------------3--0--0-----------------3--0--0--0--------------3--0--0--0--------------3--0--0--0--

Guitar Tabs for Aufsklingklangkommstan






E|--0-----------------------------------------------0-----------5--3--0-----12-------------------12-0--
B|--------1--3--------------------------------------------1--3--------------------13-15----------------
G|-----3--------2--0-----------------------------------2-----------------------14-------14-12-9--------
D|--------------------2-----2--------0-----------------------------------------------------------------
A|-----------------------------0--3-----0--------------------------------------------------------------
E|-----------------------0-----------------3--0--0-----------------------0-----------------------12-0--

tabs and chords, guitar tabs, music transcription, music technology, deep learning, music information retrieval, transcribe into tabs & chords, chordify, music renditions, songsterr, reverbnation, tabulature, bollywood chords, ultimate guitar, yousician, guitar lessons, acoustic guitar, electric guitar, guitar tuner, 911 tabs