Guitar Tabs for Breaking Benjamin - Angels Fall - Fingerstyle Tab

(/) Slide Up  (\) Slide Down  (h) Hammer On  (p) Pull Off  (b) Bend (r) Release (v) Vibrato (x) Muted

Tabs for Song : 
BPM : 400

Song lyrics here 
E|--------------------------------------------------------------------------------------------------
B|-----------7-----7-----------7-----7-----------------------7-----7-----------7-----7--------------
G|--------------------------------------------------------------------------------------------------
D|--------------------------------------------------------------------------------------------------
A|--------------------------------------------------------------------------------------------------
D|--4-----4-----------4-----4-----------4--5--4--0--4-----4-----------4-----4-----------4--5--4--0--

E|-----------------------------------------------------------------------------------------------------------------
B|--7--------------------9--------------------10-------------------------------------------------------------------
G|-----------------------------------------------------------1--------------------2--------------------1-----------
D|--4--------------------6--------------------7--------------------------------------------------------------------
A|-----------------------------------------------------------------------------------------------------------------
D|--0--------------------0--------------------0--------------2--------------------2--------------------2-----------

E|-----------------------------------------------------------------------------------------------------
B|--------------7-----7-----------7-----7-----------------------7-----7-----------7-----7--------------
G|-----------------------------------------------------------------------------------------------------
D|-----------------------------------------------------------------------------------------------------
A|-----------------------------------------------------------------------------------------------------
D|-----4-----4-----------4-----4-----------4--5--4--0--4-----4-----------4-----4-----------4--5--4--0--

E|--------------------------------------------------------------------------------------------------------------------------------
B|--7--------------------9--------------------10-------------------------------------------------------3--------------------------
G|-----------------------------------------------------------1--------------------2--------------------2--------------6-----------
D|--4--------------------6--------------------7-----------------------------------------------------------------------------------
A|--------------------------------------------------------------------------------------------------------------------------------
D|--0--------------------0--------------------0--------------2--------------------2--------------------2--------------4-----------

E|-----------------------------------------------------------------------------------------------------------------
B|-----------------------------------------------------------------------------------------------------------------
G|-----------------------------------------------------------------------------------------------------------------
D|--6-----7-----7-----6-----4-----6-----------------7-----6--------------4-----4-----------------4-----------------
A|-----------------------------------------------------------------------------------------------------0-----------
D|--4-----------4-----------4-----------7-----------7-----7--------------------0-----------0-----------------------

E|--------------------------------------------------------
B|--------------------------------------------------------
G|--------2-----1-----------2-----------2-----------------
D|--2-----2-----2-----------------------2-----------------
A|--------------------------------------------------------
D|--2-----2-----2-----------------2-----2-----------------

E|-----------------------------------------------------------------------------------------------------------------------------------------
B|-----------------------------------------------------------------------------------------------------------------------------------------
G|--------------------------------------------------------------------------4--------------------------------------------------------------
D|---6/7--------6-----------7-----7-----------------6-----7-----------------------6--------------4-----4-----------------4-----------------
A|--------------------------------------------4--------------------------------------------------------------------------------0-----------
D|---4/---------4-----------------------4------------------------4p7--------------7--------------------0-----------0-----------------------

E|-----------------------------------------------------
B|-----------------------------------------------------
G|--------2-----1-----------2-----------2--------------
D|--2-----2-----2-----------------------2--------------
A|-----------------------------------------------------
D|--2-----2-----2-----------------2-----2--------------

E|--------------------------------------------------------------------------------------------------
B|-----------0v----------------------------------------------------------------5-----5--------------
G|-----2-----------------------6-----6-----------------4-----6--------------------------------------
D|--------------------------------------------------------------------------------------------------
A|-----------------------------------------------------------------0-----------------0--------------
D|-----2-----------------------------4-----------------4--------------------------------------------

E|-----------------------------------------------------------------------------------------------------
B|-----------------------------------------------------------------------------------------------------
G|-----------------------------------------------------6-----4-----------6-----------6-----------------
D|-----6-----4-----------------4-----------------------------------------------------------------------
A|-----------------------------------0-----------------------------------------------------------------
D|-----------0-----------0-----------------------0-----------2-----------------2-----------------------

E|--------------------------------------------------------------------------------------------------------------------------------------------
B|--------------------------------------------------------------------------------------------------------------------------------------------
G|--------------------------------------------------------------------------4-----------------------------------------------------------------
D|---6/7--------6-----------7-----7-----------------6-----7-----------------------6-----------------4-----4-----------------4-----------------
A|--------------------------------------------4-----------------------------------------------------------------------------------0-----------
D|---4/---------4-----------------------4------------------------4p7--------------7-----------------------0-----------0-----------------------

E|--------------------------------------------------------
B|--------------------------------------0v----------------
G|--------2-----1-----------2-----------------------------
D|--2-----2-----2-----------------------2v----------------
A|--------------------------------------------------------
D|--2-----2-----2-----------------2-----------------------

E|--------4-----------5-----------5-----------------------4-----------5-----------5-----------------------
B|--------------------------------------------7-----------------------------------------------7-----------
G|--6-----------------------------------------------6-----------------------------------------------6-----
D|--------4-----------------------------------------------------------------------------------------------
A|--------------------------------------------------------------------------------------------------------
D|--4-----------------------------4-----------------------0-----------------------0-----------------------

E|--------------------------------------------------0-----------------------------------------
B|--5-----------------------------------------------------------3-----------2-----------------
G|--------------7-----------6-----------------6-----------------------------------------------
D|--------------------------------------7-----------------------------------------------------
A|--------------------------------------------------------------------------------------------
D|--7-----------------------7-----------------------2-----------------------2-----------------

E|--------4-----------5-----------5-----------------------4-----------5-----------5-----------------------
B|--------------------------------------------7-----------------------------------------------7-----------
G|--6-----------------------------------------------6-----------------------------------------------6-----
D|--------4-----------------------------------------------------------------------------------------------
A|--------------------------------------------------------------------------------------------------------
D|--4-----------------------------4-----------------------0-----------------------0-----------------------

E|--------------------------------------------------0-----------------------------------------
B|--5-----------------------------------------------------------3-----------2-----------------
G|--------------7-----------6-----------------6-----------------------------------------------
D|--------------------------------------7-----------------------------------------------------
A|--------------------------------------------------------------------------------------------
D|--7-----------------------7-----------------------2-----------------------2-----------------

E|--------------------------------------------------------------------------------------------------------------
B|--------------------------------------------------------------------------------2-----------------------------
G|--1-----1-----------2-----------2-----------------2-----4-----------------4-----------------4-----------------
D|--------------------------------------------0-----------------------2-----------------------------------------
A|--------------------------------------------------------------------------------------------------------------
D|--------0-----------------0-----------0-----------------------2-----------------------------------2--4--2--0--

E|--------------------------------------------------------------------------------------------------
B|-----------7-----7-----------7-----7-----------------------7-----7-----------7-----7--------------
G|--------------------------------------------------------------------------------------------------
D|--------------------------------------------------------------------------------------------------
A|--------------------------------------------------------------------------------------------------
D|--4-----4-----------4-----4-----------4--5--4--0--4-----4-----------4-----4-----------4--5--4--0--

E|-----------------------------------------------------------------------------------------------------------------------------------
B|--7--------------------9--------------------10-------------------------------------------------------3-----------------------------
G|-----------------------------------------------------------1--------------------2--------------------2--------------6v-------------
D|--4--------------------6--------------------7-----------------------------------0--------------------------------------------------
A|-----------------------------------------------------------------------------------------------------------------------------------
D|--0--------------------0--------------------0--------------2--------------------2--------------------2--------------4v-------------

E|-----------------------------------------------------------------------------------------------------------------
B|-----------------------------------------------------------------------------------------------------------------
G|-----------------------------------------------------------------------------------------------------------------
D|--6-----7-----7-----6-----4-----6-----------------7-----6v-------------4-----4-----------------4-----------------
A|-----------------------------------------------------------------------------------------------------0v----------
D|--4-----------4-----------4-----------7-----------7-----7v-------------------0-----------0-----------------------

E|-----------------------------------------------------
B|-----------------------------------------------------
G|--------2-----1-----------2-----------2v-------------
D|--2-----2-----2-----------------------2v-------------
A|-----------------------------------------------------
D|--2-----2-----2-----------------2--------------------

E|--
B|--
G|--
D|--
A|--
D|--

E|--
B|--
G|--
D|--
A|--
D|--



E|--
B|--
G|--
D|--
A|--
D|--

E|--
B|--
G|--
D|--
A|--
D|--

E|--
B|--
G|--
D|--
A|--
D|--

Song lyrics here 
E|--
B|--
G|--
D|--
A|--
D|--

Use manual mode to free up cursor. Paste any tab in acousterr tab maker and we'll play it !!!
tabs and chords, guitar tabs, music transcription, music technology, deep learning, music information retrieval, transcribe into tabs & chords, chordify, music renditions, songsterr, reverbnation, tabulature, bollywood chords, ultimate guitar, yousician, guitar lessons, acoustic guitar, electric guitar, guitar tuner, 911 tabs