Guitar Tabs for Almost (sweet Music) - Hozier

(/) Slide Up  (\) Slide Down  (h) Hammer On  (p) Pull Off  (b) Bend (r) Release (v) Vibrato (x) Muted

Intro 
E|------------------------------------------------------------
B|--8p7-------------------------8p7---------------------------
G|----------7-----9-----4---------------7-----9-----4-----4---
D|--9-------9-----10----5-------9-------9-----10----5-----5---
A|--7---------------------------7-----------------------------
E|----------7-----8-----3---------------7-----8-----3-----3---

E|-----------------------------------------------------------
B|----------8-----------------------------------------------3
G|--4-------------7-----9-----4-----4-----5-----7-----------4
D|--5-------9-----9-----10----5-----5-----7-----9-----------5
A|----------7------------------------------------------------
E|--3-------------7-----8-----3-----3-----5-----7-----3------

E|--7h10p7--------7-----8-----3-----7h10p7-------7-----8-----3-----3
B|--8-------------8-----8-----3-----8------------8-----8-----3-----3
G|--7-------------7-----9-----4-----7------------7-----9-----4-----4
D|------------------------------------------------------------------
A|--7-------------------------------7-------------------------------
E|----------------------8-----3------------------------8-----3-----3

E|--3------7-----7-----8-----3-----3-----5-----7-----3--3-
B|--3------8-----7-----8-----3-----3-----5-----7-----3--3-
G|--4------9-----7-----9-----4-----4-----5-----7-----4--4-
D|---------------------------------------------------5--5-
A|---------7-----------------------------------------5--5-
E|--3------------7-----8-----3-----3-----5-----7-----3--3-

Verse
E|-----3--------3-----------------------------------------
B|-----3-----5--3-----------3--3--------------------------
G|-----4-----5--4-----------2--2-----0--0--0-----------0h2
D|-----5-----5--5-----2--2--0--0-----2--2--2-----0h2------
A|-----5-----3--5-----2--2-----------3--3--3--------------
E|--0--3--------3-----------------------------------------

E|-----3--------3--------------------------
B|--0--3-----5--3----------3--3------------
G|--4--4-----5--4----------2--2-----0--0--0
D|--5--5-----5--5----2--2--0--0-----2--2--2
A|-----5-----3--5----2--2-----------3--3--3
E|-----3--------3--------------------------

Pre-Chorus
E|--7--------x-------8-----3-----0-----2-----0--
B|--7h8------x-------8-----3-----0-----3-----1--
G|--7--------x-------9-----4-----0-----2-----0--
D|--7h9------7-------10----5-----2-----0-----2--
A|--7--------7h9-----10----5-----2-----------3--
E|--7--------7-------8-----3-----0--------------

Chorus

E|-----------------------------------------------------------
B|--8p7-------------------------8p7--------------------------
G|----------7-----9-----4---------------7-----9-----4-----4--
D|--9-------9-----10----5-------9-------9-----10----5-----5--
A|--7---------------------------7----------------------------
E|----------7-----8-----3---------------7-----8-----3-----3--

E|----------------------------------------------------3--3---
B|----------8-----------------------------------------3--3---
G|--4-------------7-----9-----4-----4-----5-----7-----4--4---
D|--5-------9-----9-----10----5-----5-----7-----9-----5--5---
A|----------7-----------------------------------------5--5---
E|--3-------------7-----8-----3-----3-----5-----7-----3--3---

E|------7h10p7----7-----8-----3-----7h10p7------7-----8-----3-----3
B|------8---------8-----8-----3-----8-----------8-----8-----3-----3
G|------7---------7-----9-----4-----7-----------7-----9-----4-----4
D|-----------------------------------------------------------------
A|--7---7---------------------------7------------------------------
E|----------------------8-----3-----------------------8-----3-----3

E|--3---7----7----8-----3-----3-----5-----7-----3--3-
B|--3---8----7----8-----3-----3-----5-----7-----3--3-
G|--4---9----7----9-----4-----4-----5-----7-----4--4-
D|----------------------------------------------5--5-
A|------7---------------------------------------5--5-
E|--3--------7----8-----3-----3-----5-----7-----3--3-

Back to Verse


Bridge
E|-----3--2--0-------------------0--0--3--------3--2--0--------0--0--3
B|-----3--2--0-------------------1--1--3--------3--2--0--------1--1--3
G|-----4--2--0-------------------0--0--4--------4--2--0--------0--0--4
D|-----5--4--2--0h2p0------------2--2--5--------5--4--2-----0--2--2--5
A|-----5--4--2---------0h2p0-----3--3--5--------5--4--2--------3--3--5
E|--0--3--2--0-------------------------3-----0--3--2--0--------------3

E|-----3--2--0-------------------0--0--3--------3--2--0--------0--0--3--
B|-----3--2--0-------------------1--1--3--------3--2--0--------1--1--3--
G|-----4--2--0-------------------0--0--4--------4--2--0--------0--0--4--
D|-----5--4--2--0h2p0------------2--2--5--------5--4--2-----0--2--2--5--
A|-----5--4--2---------0h2p0-----3--3--5--------5--4--2--------3--3--5--
E|--0--3--2--0-------------------------3-----0--3--2--0--------------3--

Back to Verse
tabs and chords, guitar tabs, music transcription, music technology, deep learning, music information retrieval, transcribe into tabs & chords, chordify, music renditions, songsterr, reverbnation, tabulature, bollywood chords, ultimate guitar, yousician, guitar lessons, acoustic guitar, electric guitar, guitar tuner, 911 tabs