Piano Tabs for Allemannsagenklingklang

(/) Slide Up  (\) Slide Down  (h) Hammer On  (p) Pull Off  (b) Bend (r) Release (v) Vibrato (x) Muted

Tabs for Song : 
BPM : 200

Song lyrics here
2|--e--b--------e--b--------e--b--------e--b-----e--g-----------g-----------e--F#-g--b--------------b--b--b--b--e-----------------------------------g--e--a-----b--g--F#-e--------e-----
2|-----------------------------------------------g--------------------------------------------------------------------------------------------------------------------------------b-----
2|-----------------------------------------------b--------------------------------------------------------------------------------------------------------------------------------------
3|--------e-----------e-----------e-----------e--------c--g--c-----c--g--c--------------e--F#-g--b--b--b--b--b-----g--b--g--e-----------e-----g--e--------e-----------------e-----e-----
3|--------------------------------------------------------------------------------------------------------------------------------------g-----------------------------------b-----------
3|--------------------------------------------------------------------------------------------------------------------------------------b-----------------------------------------------
4|-----------------------------------------------------------------------------------------------------------------------------g--b--g--------------------------------------e-----------
5|--------------------------------------------------------------------------------------------------------------------------------------------------------------------------------------

Song lyrics here
2|--
3|--
4|--
5|--

Paste any tab in acousterr's tab maker and we'll play it !!!
Now supports capo and sound effects for vibrato/pull-off/hammer/bends/mutes etc !!! Checkout help section

Piano Tabs for Allemannsagenklingklang






2|-----------------------------------------------------------------------------------------------------------------------------------------------------------------------------------
3|-----------------b--b--a-----------------b--b--e--------g-----------------------------------------------b--b--e--g--b--g--e-----------------g-----g--e--a-----b--g--F#-e-----------
3|-----------------------------------------------g--------------------------------------------------------------------------------------------------------g--------------------------
3|-----------------------------------------------b-----------------------------------------------------------------------------------------------------------------------------------
4|--e--b--b--F#-e-----------e--b--b--g--e-----------g--c-----c--g-----g--c--b--F#-g--b-----F#-g--b--e--b--e--b-----------------g--b--g--e--------e--------------------------e--------
4|--------------------------------------------------------------------------------------------------b--------d--------------------------g--------------------------------------------
4|--------------------------------------------------------------------------------------------------------------------------------------b--------------------------------------------
5|-----------------------------------------------------------------c--------------------e--------------e--------------------------------------------------------------------------e--






2|--
3|--
4|--
5|--

Guitar Tabs for Allemannsagenklingklang






E|--0-----------0-----------0-----------0-----------3-----------3-----------0-----------0-----------2--2--2--2--0-----------------------0-----------------0-----------1--0--0-----0--------
B|--0-----------0-----------0-----------0-----------3-----------3-----------0-----------0-----------4--4--3--3--0--------------------------9--------------0-----0-----------0-----0--------
G|--0-----------0-----------1-----------0-----------3-----------4-----------1-----------0-----------4--4--4--4--0-----------------------------0-----0-----0--------0--------0-----1--------
D|--2-----------2-----------2-----------2-----------5-----------5-----------2-----------2-----------4--4--4--4--2--------------------------------2-----2--2-----------------2-----2--------
A|--2-----------2-----------2-----------2-----------5-----------5-----------2-----------2-----------2--2--2--2--2-----------------------------------------2-----------------2-----2--------
E|--0-----------0-----------0-----------0-----------3-----------3-----------0-----------0-----------------------0-----------------------------------------0-----------------0-----0--------




E|--
B|--
G|--
D|--
A|--
E|--

Bass Tabs for Allemannsagenklingklang






G|-----------------------------------------------------5--0--5-----------------------4--------------------------------------------------------0-----0--------------------------------
D|--------------------------------------------------5-----------5-----------2--3--5--------------------------------------------------------------2-----2-----------------------------
A|--------7-----------7-----------7-----------7--7-----------------3-----3--------------------------------------7--10----10-7-----------------------------0-----2--------------------
E|--0--7--------0--7--------0--7--------0--7--------------------------3-----------------0--1--3--7--7--7--7--7--------7--------3--7--3--0--------------------------3--1--0--0-----0--






G|--
D|--
A|--
E|--

tabs and chords, guitar tabs, music transcription, music technology, deep learning, music information retrieval, transcribe into tabs & chords, chordify, music renditions, songsterr, reverbnation, tabulature, bollywood chords, ultimate guitar, yousician, guitar lessons, acoustic guitar, electric guitar, guitar tuner, 911 tabs