Guitar Tabs for Tired - Alan Walker Ft. Gavin James

(/) Slide Up  (\) Slide Down  (h) Hammer On  (p) Pull Off  (b) Bend (r) Release (v) Vibrato (x) Muted

Tabs for Song : 

I see those tears in your eyes
E|-----------------0--2--2-----
B|--3--3--------3--------------
G|-----------2-----------------
D|-----------------------------
A|-----------------------------
E|-----------------------------

I feel so helpless inside
E|-----------------0--2--2--0-----
B|--3--3--------3-----------------
G|-----------2--------------------
D|--------------------------------
A|--------------------------------
E|--------------------------------

Oh love, there's no need to hide
E|-----------------0--2--2-----
B|--3--3--------3--------------
G|-----------2-----------------
D|-----------------------------
A|-----------------------------
E|-----------------------------

Just let me love you when your heart is tired
E|--------5--5--2--2--0--0--------
B|--3--3--------------------3--3--
G|--------------------------------
D|--------------------------------
A|--------------------------------
E|--------------------------------

Cold hands, red eyes
E|--5----2-----0----2----
B|-----------------------
G|-----------------------
D|-----------------------
A|-----------------------
E|-----------------------

Packed your bags at midnight
E|--5--0--0--------0-----
B|--------------3-----3--
G|-----------------------
D|-----------------------
A|-----------------------
E|-----------------------

They've been there for weeks
E|-----5--2-----0--2--
B|--3-----------------
G|--------------------
D|--------------------
A|--------------------
E|--------------------

You don't know what goodbye means
E|--5--2--0--------0-----
B|--------------3-----3--
G|-----------------------
D|-----------------------
A|-----------------------
E|-----------------------

Just roll up a cigarette
E|--------------------------
B|-----2--3--------2--2--3--
G|--2-----------2-----------
D|--------------------------
A|--------------------------
E|--------------------------

Just forget about this mess
E|-----------------2--------
B|--2--3--2-----2-----2--0--
G|--------------------------
D|--------------------------
A|--------------------------
E|--------------------------

Waiting on the sidelines
E|-----5--2-----0-----0--2--
B|--3--------------3--------
G|--------------------------
D|--------------------------
A|--------------------------
E|--------------------------

From the sidelines
E|--0-----0--2--
B|-----3--------
G|--------------
D|--------------
A|--------------
E|--------------

I see those tears in your eyes
E|-----------------0--2--2-----
B|--3--3--------3--------------
G|-----------2-----------------
D|-----------------------------
A|-----------------------------
E|-----------------------------
 

And I feel so helpless inside
E|-----------------0--2--2--0-----
B|--3--3--------3-----------------
G|-----------2--------------------
D|--------------------------------
A|--------------------------------
E|--------------------------------


Oh love, there's no need to hide
E|-----------------0--2--2-----
B|--3--3--------3--------------
G|-----------2-----------------
D|-----------------------------
A|-----------------------------
E|-----------------------------



Just let me love you when your heart is tired
E|--------5--5--2--2--0--0--------
B|--3--3--------------------3--3--
G|--------------------------------
D|--------------------------------
A|--------------------------------
E|--------------------------------

If your ghost pulls you apart
E|-----------------0--2--2--
B|-----3--3-----3-----------
G|--2-----------------------
D|--------------------------
A|--------------------------
E|--------------------------

And it feels like you've lost who you are
E|-----------------------0--2--2--0--
B|-----3--3-----0-----3--------------
G|--2--------------2-----------------
D|-----------------------------------
A|-----------------------------------
E|-----------------------------------

My love, there's no need to hide
E|-----------------0--2--2-----
B|--3--3--------3--------------
G|-----------2-----------------
D|-----------------------------
A|-----------------------------
E|-----------------------------

Just let me love you when your heart is tired
E|--------5--5--2--2--0--0--------
B|--3--3--------------------3--3--
G|--------------------------------
D|--------------------------------
A|--------------------------------
E|--------------------------------

Just let me love you
E|--0-----0-----------------5--5--2--
B|-----------2--3-----3--3-----------
G|-----------------------------------
D|-----------------------------------
A|-----------------------------------
E|-----------------------------------

Just let me love you
E|--3-----2-----0-----------5--5--2--2-----
B|-----------3--------3--3--------------3--
G|-----------------------------------------
D|-----------------------------------------
A|-----------------------------------------
E|-----------------------------------------

Just let me love you
E|--0-----0--2--------------5--5--2--
B|--------------3-----3--3-----------
G|-----------------------------------
D|-----------------------------------
A|-----------------------------------
E|-----------------------------------

Just let me love you when your heart is tired
E|--3-----5-----0--5-----5--2--2--0--0--------
B|-----------3--------------------------3--3--
G|--------------------------------------------
D|--------------------------------------------
A|--------------------------------------------
E|--------------------------------------------



Paste any tab in acousterr's tab maker and we'll play it !!!
Now supports capo and sound effects for vibrato/pull-off/hammer/bends/mutes etc !!! Checkout help section
tabs and chords, guitar tabs, music transcription, music technology, deep learning, music information retrieval, transcribe into tabs & chords, chordify, music renditions, songsterr, reverbnation, tabulature, bollywood chords, ultimate guitar, yousician, guitar lessons, acoustic guitar, electric guitar, guitar tuner, 911 tabs