Guitar Tabs for Alan Walker - Diamond Heart

(/) Slide Up  (\) Slide Down  (h) Hammer On  (p) Pull Off  (b) Bend (r) Release (v) Vibrato (x) Muted

Tabs & Chords

Check Track 2 for Chord Positions 

    Dm                                              Am                                           
E|--------------------------------------------------0-----------0-----------0-----------0--------
B|-----------------------------------------------------------------------------------------------
G|--10----7-----10----7-----10----7-----10----7--------------------------------------------------
D|--------------------------------------------------------10----------10----------10----------10-
A|-----------------------------------------------------------------------------------------------
E|-----------------------------------------------------------------------------------------------

       C                                               G                                      
E|-----0-----------0-----------0-----------0--------------------------------------------------
B|-----------------------------------------------------------0-----------0--------------------
G|-----------------------------------------------------7-----------7-----------7-----7-----7--
D|-----------10----------10----------10----------10-------------------------------------------
A|--------------------------------------------------------------------------------------------
E|--------------------------------------------------------------------------------------------

             Dm                                        Am                            F     C  
E|-----0--------------------0--------------0-----------------------0--0--0--0-----------------
B|--------------------------------------------------------------------------------------------
G|-----------10----10----7-----10-10-10-10-------7--------------7--------------7--------------
D|-----------------------------------------------------10----10----------------------10----10-
A|--------------------------------------------------------------------------------------------
E|--------------------------------------------------------------------------------------------

                               G                             Dm                                  
E|-----------0--0--0--0--0-----------------------------0-----------------0--------------0--------
B|-----------------------------------0-----------------------------------------------------------
G|--------7--------------------7-----------7-----7-----------10-7-----7-----10-10-10-10-------7--
D|-----10----------------------------------------------------------------------------------------
A|-----------------------------------------------------------------------------------------------
E|-----------------------------------------------------------------------------------------------

       Am                            F     C                             G                    
E|-----------------0--0--0--0--------------------------0--0--0--0--0-----------------8-----7--
B|--------------------------------------------------------------------------------------------
G|--------------7--------------7--------------------7--------------------7--7--7--------------
D|-----10----10----------------------10----10----10-------------------------------------------
A|--------------------------------------------------------------------------------------------
E|--------------------------------------------------------------------------------------------

                Dm                                        Am                                  
E|--------------------------------0--------------------------0-----0--0--0-----------0--------
B|-----8-----------------------------------10-------------------------------------------------
G|-----------10-7--10-10-10-10-------10-10----7--10-10----7-----------------------7-----------
D|-----------------------------------------------------7-----------------------7-----------10-
A|--------------------------------------------------------------------------------------------
E|--------------------------------------------------------------------------------------------

                C                                         G                                   
E|--0-----------0-----0--0--0--------0-----------0--------------------------------------------
B|--------------------------------------------------------------0-----0-----0-----0-----0-----
G|--------------------------------7--------0-----------------7-----0-----7-----0-----7-----0--
D|-----10-7--10-------------------------------10----10-10-10----------------------------------
A|--------------------------------------------------------------------------------------------
E|--------------------------------------------------------------------------------------------

                         Dm                                  Am                               
E|-----------------------------------0--------------------------0--------0--0--0--------0-----
B|--0--8--0-----0-----------------------------10----------------------------------------------
G|-----------0-----10-10-10-10-10-------10-10----7--10-10----7-----------------------7--------
D|--------------------------------------------------------7--------10-7--------------------10-
A|--------------------------------------------------------------------------------------------
E|--------------------------------------------------------------------------------------------

                      C                                         G                             
E|--------0-----------0--------0--0--------0-----------0-----------------------------------8--
B|--------------------------------------------------------------------0-----0-----0-----0-----
G|--------------------------0-----------7--------0-----------------7-----0-----7-----0--------
D|-----10----10-7--10----10-------------------------10----10-10-10----------------------------
A|--------------------------------------------------------------------------------------------
E|--------------------------------------------------------------------------------------------

                               Dm                                        Am                   
E|--8--8-----8--8-----7-----------------------------------------------------0-----------0-----
B|--------------------------------------------------------------------------------------------
G|--------------------------10-10----7--10-7-----7--10-7-----7--10-7-----7--------------------
D|--------------------------------7-----------7-----------7-----------7--------10-7--10----10-
A|--------------------------------------------------------------------------------------------
E|--------------------------------------------------------------------------------------------

                                     C                                         G              
E|--------0-----------0-----------0-----------0-----------0-----------0-----------------------
B|-----------------------------------------------------------------------8--8--8-----0-----0--
G|--------------------------------------------------0-----------0-----------------7-----0-----
D|--7--10----10-7--10----10----10----10----10----10----10----10----10-------------------------
A|--------------------------------------------------------------------------------------------
E|--------------------------------------------------------------------------------------------

                                              Dm                                     Am       
E|--------------------------------------------------------------------------------------0-----
B|-----0-----0-----0-----0-----0-----0--------------------------------------------------------
G|--7-----0-----7-----------7-----------10-10----7--10-7-----7--10-7-----7--10-7-----7--------
D|--------------------------------------------7-----------7-----------7-----------7--------10-
A|--------------------------------------------------------------------------------------------
E|--------------------------------------------------------------------------------------------

                               C                                                        G     
E|--------0-----------0-----------0-----------0-----------0-----------0-----------------------
B|-----------------------------------8--8--8-----------8--------------------------10-8--8--8--
G|--------------------------------------------------------------0-----------0-----------------
D|--7--10----10-7--10-------10-10----------------10-10-------------10----10----10-------------
A|--------------------------------------------------------------------------------------------
E|--------------------------------------------------------------------------------------------

                                                       Dm                                     
E|-----------------------------------------0--------------------------------------------0-----
B|--8-----0-----0-----0-----0-----0-----0-----0-----0-----------------------------------------
G|-----7-----0-----7-----0-----7-----0-----------0-----10-10-10-10-10-10----7--10-10-------10-
D|--------------------------------------------------------------------------------------------
A|--------------------------------------------------------------------------------------------
E|--------------------------------------------------------------------------------------------

          Am                                     C                                            
E|--------0-----0-----------0--------0--------------0-----0--0-----0-----------0-----0-----0--
B|--------------------------------------------------------------------------------------------
G|--10----------------------------------------------------------7-----------------------7-----
D|--------------------10-10-------10-------10-10-10----------------------10-------------------
A|--------------------------------------------------------------------------------------------
E|--------------------------------------------------------------------------------------------

          G                                                           Dm                      
E|-----------------------------------------------------0--------------------------------------
B|-----------------0--------0-----0-----0-----0-----0-----0-----------------------------------
G|-----------7-----------7-----0-----7-----0-----7-----------10-7--10-10-10-10-7--7--7--10-10-
D|-----10-10----10----10----------------------------------------------------------------------
A|--------------------------------------------------------------------------------------------
E|--------------------------------------------------------------------------------------------

                         Am                                        C                          
E|--0-----0--------------0-----0-----0-----0-----0-----------0-----0-----0-----------0-----0--
B|--------------------------------------------------------------------------------------------
G|-----------10----7--------------------------------------------------------------------------
D|--------------------------------------------10----10-10----------------------10-10----------
A|--------------------------------------------------------------------------------------------
E|--------------------------------------------------------------------------------------------

                G                                               Dm                            
E|-----0-----------------------------------------------------------------------0--------------
B|--------------------0--------0-----0-----0-----0-----0-----0--------------------------------
G|--7-----------7-----------7-----0-----7-----7-----7-----7-----10----10----7-----10-10-10-10-
D|-----------10----10----10-------------------------------------------------------------------
A|--------------------------------------------------------------------------------------------
E|--------------------------------------------------------------------------------------------

                Am                            C                                G              
E|--0-----------------------0--0--0--0--------------------------0--0-----0--------------------
B|-----------------------------------------------------------------------------------0--------
G|--------7--------------7--------------7--------------------------------------7-----------10-
D|--------------10----10----------------------10----10----10----------------------------------
A|--------------------------------------------------------------------------------------------
E|--------------------------------------------------------------------------------------------

                   Dm                                        Am                            C  
E|-----------0--------------------0--------------------------0-----------0--0--0--0-----------
B|-----------------------------------------------8--------------------------------------------
G|--10-10-------7--10----7-----7-----10-10-10-10-------10-------------7--------------7--------
D|-----------------------------------------------------------------10----------------------10-
A|--------------------------------------------------------------------------------------------
E|--------------------------------------------------------------------------------------------

                                     G                                   Dm                   
E|-----------------0--0--0--0--0-----------------8-----7-----------------------------0--------
B|-----------------------------------------------------------8--------------------------------
G|--------------7--------------------7--7--7-----------------------10----10-10-10-------10-10-
D|-----10----10-------------------------------------------------------------------------------
A|--------------------------------------------------------------------------------------------
E|--------------------------------------------------------------------------------------------

                         Am                      C                                            
E|-----------------------0-----0--0--0--0-----------0-----------0-----------0-----0--0--------
B|--------------------------------------------------------------------------------------------
G|-----7--10-10-------7--------------------------7-----------------------------------------7--
D|-----------------7--------------------------7-----------7--10----10-7--10-------------------
A|--------------------------------------------------------------------------------------------
E|--------------------------------------------------------------------------------------------

                         G                                                           Dm       
E|--0-----------0-----------------------------------------------------------------------------
B|-----------------------------0-----0-----0-----0-----0-----0--8--0-----0--------------------
G|--------0-----------------7-----0-----7-----0-----7-----0-----------0-----10-10----10-10-10-
D|-----------10----10-10-10-------------------------------------------------------------------
A|--------------------------------------------------------------------------------------------
E|--------------------------------------------------------------------------------------------

                            Am                            C                                   
E|-----0--------------------0--0--0-----------0-----------0--------0--0--------0-----------0--
B|--------------------------------------8-----------------------------------------------------
G|--------10----7--10-10----------------------------------------0-----------7--------0--------
D|-----------------------------------------10----10-7--10----10-------------------------10----
A|--------------------------------------------------------------------------------------------
E|--------------------------------------------------------------------------------------------

          G                                                        Dm                         
E|-----------------------------------8--8--8-----8--8-----7-----------------------------------
B|--------------0-----0-----0-----0-----------------------------------------------------------
G|-----------7-----0-----7-----0--------------------------------10-10----7--10-7-----7--10-7--
D|--10-10-10----------------------------------------------------------7-----------7-----------
A|--------------------------------------------------------------------------------------------
E|--------------------------------------------------------------------------------------------

                            
E|--------------------0-----
B|--------------------------
G|-----7--10-7-----7--------
D|--7-----------7--------10-
A|--------------------------
E|--------------------------

Guitar Tabs for Alan Walker - Diamond Heart






    Dm                                              Am                                           
E|--1-----------------------------------------------0--------------------------------------------
B|--3-----------------------------------------------1--------------------------------------------
G|--2-----------------------------------------------2--------------------------------------------
D|--0-----------------------------------------------2--------------------------------------------
A|--------------------------------------------------0--------------------------------------------
E|-----------------------------------------------------------------------------------------------

       C                                               G                                      
E|-----0-----------------------------------------------3--------------------------------------
B|-----1-----------------------------------------------3--------------------------------------
G|-----0-----------------------------------------------4--------------------------------------
D|-----2-----------------------------------------------5--------------------------------------
A|-----3-----------------------------------------------5--------------------------------------
E|-----------------------------------------------------3--------------------------------------

             Dm                                        Am                            F     C  
E|-----------1-----------------------------------------0-----------------------------1-----0--
B|-----------3-----------------------------------------1-----------------------------1-----1--
G|-----------2-----------------------------------------2-----------------------------2-----0--
D|-----------0-----------------------------------------2-----------------------------3-----2--
A|-----------------------------------------------------0-----------------------------3-----3--
E|-----------------------------------------------------------------------------------1--------

                               G                             Dm                                  
E|-----------------------------3-----------------------------1-----------------------------------
B|-----------------------------3-----------------------------3-----------------------------------
G|-----------------------------4-----------------------------2-----------------------------------
D|-----------------------------5-----------------------------0-----------------------------------
A|-----------------------------5-----------------------------------------------------------------
E|-----------------------------3-----------------------------------------------------------------

       Am                            F     C                             G                    
E|-----0-----------------------------1-----0-----------------------------3--------------------
B|-----1-----------------------------1-----1-----------------------------3--------------------
G|-----2-----------------------------2-----0-----------------------------4--------------------
D|-----2-----------------------------3-----2-----------------------------5--------------------
A|-----0-----------------------------3-----3-----------------------------5--------------------
E|-----------------------------------1-----------------------------------3--------------------

                Dm                                        Am                                  
E|--------------1-----------------------------------------0-----------------------------------
B|--------------3-----------------------------------------1-----------------------------------
G|--------------2-----------------------------------------2-----------------------------------
D|--------------0-----------------------------------------2-----------------------------------
A|--------------------------------------------------------0-----------------------------------
E|--------------------------------------------------------------------------------------------

                C                                         G                                   
E|--------------0-----------------------------------------3-----------------------------------
B|--------------1-----------------------------------------3-----------------------------------
G|--------------0-----------------------------------------4-----------------------------------
D|--------------2-----------------------------------------5-----------------------------------
A|--------------3-----------------------------------------5-----------------------------------
E|--------------------------------------------------------3-----------------------------------

                         Dm                                  Am                               
E|-----------------------1-----------------------------------0--------------------------------
B|-----------------------3-----------------------------------1--------------------------------
G|-----------------------2-----------------------------------2--------------------------------
D|-----------------------0-----------------------------------2--------------------------------
A|-----------------------------------------------------------0--------------------------------
E|--------------------------------------------------------------------------------------------

                      C                                         G                             
E|--------------------0-----------------------------------------3-----------------------------
B|--------------------1-----------------------------------------3-----------------------------
G|--------------------0-----------------------------------------4-----------------------------
D|--------------------2-----------------------------------------5-----------------------------
A|--------------------3-----------------------------------------5-----------------------------
E|--------------------------------------------------------------3-----------------------------

                               Dm                                        Am                   
E|-----------------------------1-----------------------------------------0--------------------
B|-----------------------------3-----------------------------------------1--------------------
G|-----------------------------2-----------------------------------------2--------------------
D|-----------------------------0-----------------------------------------2--------------------
A|-----------------------------------------------------------------------0--------------------
E|--------------------------------------------------------------------------------------------

                                     C                                         G              
E|-----------------------------------0-----------------------------------------3--------------
B|-----------------------------------1-----------------------------------------3--------------
G|-----------------------------------0-----------------------------------------4--------------
D|-----------------------------------2-----------------------------------------5--------------
A|-----------------------------------3-----------------------------------------5--------------
E|-----------------------------------------------------------------------------3--------------

                                              Dm                                     Am       
E|--------------------------------------------1--------------------------------------0--------
B|--------------------------------------------3--------------------------------------1--------
G|--------------------------------------------2--------------------------------------2--------
D|--------------------------------------------0--------------------------------------2--------
A|-----------------------------------------------------------------------------------0--------
E|--------------------------------------------------------------------------------------------

                               C                                                        G     
E|-----------------------------0--------------------------------------------------------3-----
B|-----------------------------1--------------------------------------------------------3-----
G|-----------------------------0--------------------------------------------------------4-----
D|-----------------------------2--------------------------------------------------------5-----
A|-----------------------------3--------------------------------------------------------5-----
E|--------------------------------------------------------------------------------------3-----

                                                       Dm                                     
E|-----------------------------------------------------1--------------------------------------
B|-----------------------------------------------------3--------------------------------------
G|-----------------------------------------------------2--------------------------------------
D|-----------------------------------------------------0--------------------------------------
A|--------------------------------------------------------------------------------------------
E|--------------------------------------------------------------------------------------------

          Am                                     C                                            
E|--------0--------------------------------------0--------------------------------------------
B|--------1--------------------------------------1--------------------------------------------
G|--------2--------------------------------------0--------------------------------------------
D|--------2--------------------------------------2--------------------------------------------
A|--------0--------------------------------------3--------------------------------------------
E|--------------------------------------------------------------------------------------------

          G                                                           Dm                      
E|--------3-----------------------------------------------------------1-----------------------
B|--------3-----------------------------------------------------------3-----------------------
G|--------4-----------------------------------------------------------2-----------------------
D|--------5-----------------------------------------------------------0-----------------------
A|--------5-----------------------------------------------------------------------------------
E|--------3-----------------------------------------------------------------------------------

                         Am                                        C                          
E|-----------------------0-----------------------------------------0--------------------------
B|-----------------------1-----------------------------------------1--------------------------
G|-----------------------2-----------------------------------------0--------------------------
D|-----------------------2-----------------------------------------2--------------------------
A|-----------------------0-----------------------------------------3--------------------------
E|--------------------------------------------------------------------------------------------

                G                                               Dm                            
E|--------------3-----------------------------------------------1-----------------------------
B|--------------3-----------------------------------------------3-----------------------------
G|--------------4-----------------------------------------------2-----------------------------
D|--------------5-----------------------------------------------0-----------------------------
A|--------------5-----------------------------------------------------------------------------
E|--------------3-----------------------------------------------------------------------------

                Am                            C                                G              
E|--------------0-----------------------------0--------------------------------3--------------
B|--------------1-----------------------------1--------------------------------3--------------
G|--------------2-----------------------------0--------------------------------4--------------
D|--------------2-----------------------------2--------------------------------5--------------
A|--------------0-----------------------------3--------------------------------5--------------
E|-----------------------------------------------------------------------------3--------------

                   Dm                                        Am                            C  
E|-----------------1-----------------------------------------0-----------------------------0--
B|-----------------3-----------------------------------------1-----------------------------1--
G|-----------------2-----------------------------------------2-----------------------------0--
D|-----------------0-----------------------------------------2-----------------------------2--
A|-----------------------------------------------------------0-----------------------------3--
E|--------------------------------------------------------------------------------------------

                                     G                                   Dm                   
E|-----------------------------------3-----------------------------------1--------------------
B|-----------------------------------3-----------------------------------3--------------------
G|-----------------------------------4-----------------------------------2--------------------
D|-----------------------------------5-----------------------------------0--------------------
A|-----------------------------------5--------------------------------------------------------
E|-----------------------------------3--------------------------------------------------------

                         Am                      C                                            
E|-----------------------0-----------------------0--------------------------------------------
B|-----------------------1-----------------------1--------------------------------------------
G|-----------------------2-----------------------0--------------------------------------------
D|-----------------------2-----------------------2--------------------------------------------
A|-----------------------0-----------------------3--------------------------------------------
E|--------------------------------------------------------------------------------------------

                         G                                                           Dm       
E|-----------------------3-----------------------------------------------------------1--------
B|-----------------------3-----------------------------------------------------------3--------
G|-----------------------4-----------------------------------------------------------2--------
D|-----------------------5-----------------------------------------------------------0--------
A|-----------------------5--------------------------------------------------------------------
E|-----------------------3--------------------------------------------------------------------

                            Am                            C                                   
E|--------------------------0-----------------------------0-----------------------------------
B|--------------------------1-----------------------------1-----------------------------------
G|--------------------------2-----------------------------0-----------------------------------
D|--------------------------2-----------------------------2-----------------------------------
A|--------------------------0-----------------------------3-----------------------------------
E|--------------------------------------------------------------------------------------------

          G                                                        Dm                         
E|--------3--------------------------------------------------------1--------------------------
B|--------3--------------------------------------------------------3--------------------------
G|--------4--------------------------------------------------------2--------------------------
D|--------5--------------------------------------------------------0--------------------------
A|--------5-----------------------------------------------------------------------------------
E|--------3-----------------------------------------------------------------------------------

                            
E|--------------------------
B|--------------------------
G|--------------------------
D|--------------------------
A|--------------------------
E|--------------------------

tabs and chords, guitar tabs, music transcription, music technology, deep learning, music information retrieval, transcribe into tabs & chords, chordify, music renditions, songsterr, reverbnation, tabulature, bollywood chords, ultimate guitar, yousician, guitar lessons, acoustic guitar, electric guitar, guitar tuner, 911 tabs