Ain't Talking Bout Love - Van Halen - Guitar Tabs

(/) Slide Up  (\) Slide Down  (h) Hammer On  (p) Pull Off  (b) Bend (r) Release (v) Vibrato (x) Muted

Tabs for Song : 
BPM : 250

Song lyrics here 
E|--------------------------------------------------
B|--------------------------------------------------
G|--------------------------------------------------
D|--------------2--3--------5--0--------------------
A|--0--0--3--0--------3--0--------------3--2--3--0--
E|---------------------------------3p---------------

E|-----------------------------------------------------
B|-----------------------------------------------------
G|-----------------------------------------------------
D|-----------------------------------------------------
A|--0--0--------3--2--3-----0--0------3h-3/5---5/7--10-
E|--------3-----------------------3--------------------

Song lyrics here 
E|--
B|--
G|--
D|--
A|--
E|--

Use manual mode to free up cursor. Paste any tab in acousterr tab maker and we'll play it !!!

About Live: Right Here, Right Now : Live: Right Here, Right Now is the band's only live album featuring Sammy Hagar . The album is released in 1993 by Van Halen until the release of Tokyo Dome Live in Concert . The album combines songs performed over two nights in May 1992 at the Selland Arena in Fresno, CA . Most of the songs on this album were from the first night, such as Eddie Van Hal The album contained only four David Lee Roth-era songs (including Van Halen's arrangement of "You Really Got Me" by The Kinks . It also featured drum and bass solos and a cover of a song by The Who . As was the case with all tours with Hagar, the band focused on songs from the new album, It had a contribution from notable artists like Sammy Hagar,Van Halen. It had an affiliation to bands - Van Halen. Its music is influenced by genres - hard rock , heavy metal.

tabs and chords, guitar tabs, music transcription, music technology, deep learning, music information retrieval, transcribe into tabs & chords, chordify, music renditions, songsterr, reverbnation, tabulature, bollywood chords, ultimate guitar, yousician, guitar lessons, acoustic guitar, electric guitar, guitar tuner, 911 tabs