Guitar Tabs for Van Halen Jump







   Bb - VERSE
E|----|--|--|--------|
B|----|--|--|--------|
G|----|--|--|--------|
D|--8-|8-|8-|8--8--10|
A|--8-|8-|8-|8--6--8-|
E|--6-|6-|6-|6-------|


  Pre-Bridge  BRIDGE
E|----------|-----------------------------|-----------------------------|
B|----------|-----------------------------|-----------------------------|
G|---5b7--3-|------3--------3---5\7--5--5-|------3--------3---5\7--5--5-|
D|----------|---5--------3----------------|---5--------3----------------|
A|----------|6--------5-------------------|6--------5-------------------|
E|----------|-----------------------------|-----------------------------|


E|-------------------------------|
B|---------------------6\8--6--6-|
G|--------3--------3-------------|
D|-----5--------3----------------|
A|--6--------5-------------------|
E|-------------------------------|


   SOLO etc...
E|--12\14-
B|--------
G|--------
D|--------
A|--------
E|--------


   Bb - VERSE - until END
E|----|--|--|--------|
B|----|--|--|--------|
G|----|--|--|--------|
D|--8-|8-|8-|8--8--10|
A|--8-|8-|8-|8--6--8-|
E|--6-|6-|6-|6-------|





tabs and chords, guitar tabs, music transcription, music technology, deep learning, music information retrieval, transcribe into tabs & chords, chordify, music renditions, songsterr, reverbnation, tabulature, bollywood chords, ultimate guitar, yousician, guitar lessons, acoustic guitar, electric guitar, guitar tuner, 911 tabs