Ainsi Sois Tu - The Killers - Guitar Tabs

basse
    
                                                                                                                                                                                                                                                                                                                                                                                                                                                                                                                                                                                                                                                                                                                                                                                                                                                                                                                                                                                                                                                                                                                                                                                              
E|-------------------------------------|-----------------------------------|
B|-------------------------------------|-----------------------------------|
G|-------------------------------------|-----------------------------------|
D|-------------------------------------|-----------------------------------|
A|-------------------------------------|-----------------------------------|
E|--0--0--0--0--0--0--0--0--0--0--0--0-|0--0--0--0--0--0--0--0--0--0--0--0-|

    
                                                                                                                                                                                                                                                                                                                                                                                                                                                                                                                                                                                                                                                                                                                                                                                                                                                                                                                                                                                                                                                                                                                                                                                              
E|-------------------------------------|-----------------------------------|
B|-------------------------------------|-----------------------------------|
G|-------------------------------------|-----------------------------------|
D|-------------------------------------|-----------------------------------|
A|-------------------------------------|-----------------------------------|
E|--0--0--0--0--0--0--0--0--0--0--0--0-|0--0--0--0--0--0--0--0--0--0--0--0-|

    
                                                                                                                                                                                                                                                                                                                                                                                                                                                                                                                                                                                                                                                                                                                                                                                                                                                                                                                                                                                                                                                                                                                                                                                              
E|-------------------------------------|-----------------------------------|
B|-------------------------------------|-----------------------------------|
G|-------------------------------------|-----------------------------------|
D|-------------------------------------|-----------------------------------|
A|-------------------------------------|-----------------------------------|
E|--0--0--0--0--0--0--0--0--0--0--0--0-|0--0--0--0--0--0--0--0--0--0--0--0-|

    
                                                                                                                                                                                                                                                                                                                                                                                                                                                                                                                                                                                                                                                                                                                                                                                                                                                                                                                                                                                                                                                                                                                                                                                              
E|-------------------------------------|-----------------------------------|
B|-------------------------------------|-----------------------------------|
G|-------------------------------------|-----------------------------------|
D|-------------------------------------|-----------------------------------|
A|-------------------------------------|-----------------------------------|
E|--0--0--0--0--0--0--0--0--0--0--0--0-|0--0--0--0--0--0--0--0--0--0--0--0-|

    
                                                                                                                                                                                                                                                                                                                                                                                                                                                                                                                                                                                                                                                                                                                                                                                                                                                                                                                                                                                                                                                                                                                                                                                              
E|-------------------------------------|-----------------------------------|
B|-------------------------------------|-----------------------------------|
G|-------------------------------------|-----------------------------------|
D|-------------------------------------|-----------------------------------|
A|-------------------------------------|-----------------------------------|
E|--0--0--0--0--0--0--0--0--0--0--0--0-|0--0--0--0--0--0--0--0--0--0--0--0-|

    
                                                                                                                                                                                                                                                                                                                                                                                                                                                                                                                                                                                                                                                                                                                                                                                                                                                                                                                                                                                                                                                                                                                                                                                              
E|-------------------------------------|-----------------------------------|
B|-------------------------------------|-----------------------------------|
G|-------------------------------------|-----------------------------------|
D|-------------------------------------|-----------------------------------|
A|-------------------------------------|-----------------------------------|
E|--0--0--0--0--0--0--0--0--0--0--0--0-|0--0--0--0--0--0--0--0--0--0--0--0-|

    
                                                                                                                                                                                                                                                                                                                                                                                                                                                                                                                                                                                                                                                                                                                                                                                                                                                                                                                                                                                                                                                                                                                                                                                              
E|-------------------------------------|-----------------------------------|
B|-------------------------------------|-----------------------------------|
G|-------------------------------------|-----------------------------------|
D|-------------------------------------|-----------------------------------|
A|-------------------------------------|-----------------------------------|
E|--0--0--0--0--0--0--0--0--0--0--0--0-|0--0--0--0--0--0--0--0--0--0--0--0-|

    
                                                                                                                                                                                                                                                                                                                                                                                                                                                                                                                                                                                                                                                                                                                                                                                                                                                                                                                                                                                                                                                                                                                                                                                              
E|-------------------------------------|-----------------------------------|
B|-------------------------------------|-----------------------------------|
G|-------------------------------------|-----------------------------------|
D|-------------------------------------|-----------------------------------|
A|-------------------------------------|-----------------------------------|
E|--0--0--0--0--0--0--0--0--0--0--0--0-|0--0--0--0--0--0--0--0--0--0--0--0-|

    
                                                                                                                                                                                                                                                                                                                                                                                                                                                                                                                                                                                                                                                                                                                                                                                                                                                                                                                                                                                                                                                                                                                                                                                              
E|-------------------------------------|-----------------------------------|
B|-------------------------------------|-----------------------------------|
G|-------------------------------------|-----------------------------------|
D|-------------------------------------|-----------------------------------|
A|-------------------------------------|-----------------------------------|
E|--0--0--0--0--0--0--0--0--0--0--0--0-|0--0--0--0--0--0--0--0--0--0--0--0-|

    
                                                                                                                                                                                                                                                                                                                                                                                                                                                                                                                                                                                                                                                                                                                                                                                                                                                                                                                                                                                                                                                                                                                                                                                              
E|-------------------------------------|-----------------------------------|
B|-------------------------------------|-----------------------------------|
G|-------------------------------------|-----------------------------------|
D|-------------------------------------|-----------------------------------|
A|-------------------------------------|-----------------------------------|
E|--0--0--0--0--0--0--0--0--0--0--0--0-|0--0--0--0--0--0--0--0--0--0--0--0-|

    
                                                                                                                                                                                                                                                                                                                                                                                                                                                                                                                                                                                                                                                                                                                                                                                                                                                                                                                                                                                                                                                                                                                                                                                              
E|-------------------------------------|-----------------------------------|
B|-------------------------------------|-----------------------------------|
G|-------------------------------------|-----------------------------------|
D|-------------------------------------|-----------------------------------|
A|-------------------------------------|-----------------------------------|
E|--0--0--0--0--0--0--0--0--0--0--0--0-|0--0--0--0--0--0--0--0--0--0--0--0-|

    
                                                                                                                                                                                                                                                                                                                                                                                                                                                                                                                                                                                                                                                                                                                                                                                                                                                                                                                                                                                                                                                                                                                                                                                              
E|-------------------------------------|-----------------------------------|
B|-------------------------------------|-----------------------------------|
G|-------------------------------------|-----------------------------------|
D|-------------------------------------|-----------------------------------|
A|-------------------------------------|-----------------------------------|
E|--0--0--0--0--0--0--0--0--0--0--0--0-|0--0--0--0--0--0--0--0--0--0--0--0-|

    
                                                                                                                                                                                                                                                                                                                                                                                                                                                                                                                                                                                                 
E|----------------------------------------------|
B|----------------------------------------------|
G|----------------------------------------------|
D|----------------------------------------------|
A|--5--5--5--5--5--5--5--5--5--5--5--5--5--5--5-|
E|----------------------------------------------|

    
                                                                                                                                                                                                                                                                                                                                                                                                                                                                                                                                                                                                 
E|----------------------------------------|
B|----------------------------------------|
G|----------------------------------------|
D|----------------------------------------|
A|--5--5--5--5--5--5--5--5--7-----8-----7-|
E|----------------------------------------|

    
                                                                                                                                                                                                                                                                                                                                                                                                                                                                                                                                                                                                                                                                                                                                                                                                                                                                                                                                                                                                                                                                                                                                                                                              
E|----------------------------------------------|-----------------------------------|
B|----------------------------------------------|-----------------------------------|
G|----------------------------------------------|-----------------------------------|
D|----------------------------------------------|-----------------------------------|
A|--3--3--3--3--3--3--3--3--3--3--3--3--3--3--3-|0--0--0--0--0--0--0--3-----3-----3-|
E|----------------------------------------------|-----------------------------------|

    
                                                                                                                                                                                                                                                                                                                                                                                                                                                                                                                                                                                                 
E|----------------------------------------------|
B|----------------------------------------------|
G|----------------------------------------------|
D|----------------------------------------------|
A|--5--5--5--5--5--5--5--5--5--5--5--5--5--5--5-|
E|----------------------------------------------|

    
                                                                                                                                                                                                                                                                                                                                                                                                                                                                                                                                                                                                                                                                                                                                                                                                                                                                                                                                                                                                                                                                                                                                                                                              
E|-------------------------------------------------|--------------------------------------------|
B|-------------------------------------------------|--------------------------------------------|
G|-------------------------------------------------|--------------------------------------------|
D|-------------------------------------------------|--------------------------------------------|
A|--5--5--5--5--5--5--5--5--5--5--5--5--5--5--5--5-|3--3--3--3--3--3--3--3--3--3--3--3--3--3--3-|
E|-------------------------------------------------|--------------------------------------------|

    
                                                                                                                                                                                                                                                                                                                                                                                                                                                                                                                                                                                                 
E|----------------------------------------------|
B|----------------------------------------------|
G|----------------------------------------------|
D|----------------------------------------------|
A|--0--0--0--0--0--0--0--3--3--3--3--3--3--3--3-|
E|----------------------------------------------|

    
                                                                                                                                                                                                                                                                                                                                                                                                                                                                                                                                                                                                                                                                                                                                                                                                                                                                                                                                                                                                                                                                                                                                                                                              
E|-------------------------|-----------------------|
B|-------------------------|-----------------------|
G|-------------------------|-----------------------|
D|-------------------------|---3--2----------------|
A|-------------------------|---------5--3--2-------|
E|--3--3--3--3--3--3--3--3-|3-----------------5--3-|

    
                                                                                                                                                                                                                                                                                                                                                                                                                                                                                                                                                                                                                                                                                                                                                                                                                                                                                                                                                                                                                                                                                                                                                                                              
E|-------------------------|-----------------------|
B|-------------------------|-----------------------|
G|-------------------------|-----------------------|
D|-------------------------|------------------2--3-|
A|-------------------------|---------2--3--5-------|
E|--1--1--1--1--1--1--1--1-|1--3--5----------------|

    
                                                                                                                                                                                                                                                                                                                                                                                                                                                                                                                                                                                                                                                                                                                                                                                                                                                                                                                                                                                                                                                                                                                                                                                              
E|-------------------------|-----------------------|
B|-------------------------|-----------------------|
G|-------------------------|-----------------------|
D|-------------------------|---3--2----------------|
A|-------------------------|---------5--3--2-------|
E|--3--3--3--3--3--3--3--3-|3-----------------5--3-|

    
                                                                                                                                                                                                                                                                                                                                                                                                                                                                                                                                                                                                 
E|-------------------------|
B|-------------------------|
G|-------------------------|
D|-------------------------|
A|--3--3--3--3--3--3--3--3-|
E|-------------------------|

    
                                                                                                                                                                                                                                                                                                                                                                                                                                                                                                                                                                                                                                                                                                                                                                                                                                                                                                                                                                                                                                                                                                                                                                                              
E|-------------------------|--------------------------------------------|
B|-------------------------|--------------------------------------------|
G|-------------------------|--------------------------------------------|
D|-------------------------|--------------------------------------------|
A|--3--3--3--3--3--3--3--3-|5--5--5--5--5--5--5--5--5--5--5--5--5--5--5-|
E|-------------------------|--------------------------------------------|

    
                                                                                                                                                                                                                                                                                                                                                                                                                                                                                                                                                                                                                                                                                                                                                                                                                                                                                                                                                                                                                                                                                                                                                                                              
E|----------------------------------------|--------------------------------------------|
B|----------------------------------------|--------------------------------------------|
G|----------------------------------------|--------------------------------------------|
D|----------------------------------------|--------------------------------------------|
A|--5--5--5--5--5--5--5--5--7-----8-----7-|3--3--3--3--3--3--3--3--3--3--3--3--3--3--3-|
E|----------------------------------------|--------------------------------------------|

    
                                                                                                                                                                                                                                                                                                                                                                                                                                                                                                                                                                                                                                                                                                                                                                                                                                                                                                                                                                                                                                                                                                                                                                                              
E|-------------------------------------|--------------------------------------------|
B|-------------------------------------|--------------------------------------------|
G|-------------------------------------|--------------------------------------------|
D|-------------------------------------|--------------------------------------------|
A|--0--0--0--0--0--0--0--3-----3-----3-|5--5--5--5--5--5--5--5--5--5--5--5--5--5--5-|
E|-------------------------------------|--------------------------------------------|

    
                                                                                                                                                                                                                                                                                                                                                                                                                                                                                                                                                                                                                                                                                                                                                                                                                                                                                                                                                                                                                                                                                                                                                                                              
E|-------------------------------------------------|--------------------------------------------|
B|-------------------------------------------------|--------------------------------------------|
G|-------------------------------------------------|--------------------------------------------|
D|-------------------------------------------------|--------------------------------------------|
A|--5--5--5--5--5--5--5--5--5--5--5--5--5--5--5--5-|3--3--3--3--3--3--3--3--3--3--3--3--3--3--3-|
E|-------------------------------------------------|--------------------------------------------|

    
                                                                                                                                                                                                                                                                                                                                                                                                                                                                                                                                                                                                 
E|----------------------------------------------|
B|----------------------------------------------|
G|----------------------------------------------|
D|----------------------------------------------|
A|--0--0--0--0--0--0--0--3--3--3--3--3--3--3--3-|
E|----------------------------------------------|

    
                                                                                                                                                                                                                                                                                                                                                                                                                                                                                                                                                                                                                                                                                                                                                                                                                                                                                                                                                                                                                                                                                                                                                                                              
E|-------------------------|-----------------------|
B|-------------------------|-----------------------|
G|-------------------------|-----------------------|
D|-------------------------|---3--2----------------|
A|-------------------------|---------5--3--2-------|
E|--3--3--3--3--3--3--3--3-|3-----------------5--3-|

    
                                                                                                                                                                                                                                                                                                                                                                                                                                                                                                                                                                                                                                                                                                                                                                                                                                                                                                                                                                                                                                                                                                                                                                                              
E|-------------------------|-----------------------|
B|-------------------------|-----------------------|
G|-------------------------|-----------------------|
D|-------------------------|------------------2--3-|
A|-------------------------|---------2--3--5-------|
E|--1--1--1--1--1--1--1--1-|1--3--5----------------|
tabs and chords, guitar tabs, music transcription, music technology, deep learning, music information retrieval, transcribe into tabs & chords, chordify, music renditions, songsterr, reverbnation, tabulature, bollywood chords, ultimate guitar, yousician, guitar lessons, acoustic guitar, electric guitar, guitar tuner, 911 tabs