Bass Tabs for A-ha - Take On Me

Intro
G|--------------------------------------------------------------------------------------------------
D|--9-----------------9-----9--9--------------9-----9-----------------9-----9--9--------------------
A|--------------------------------------------------------------------------------------------------
E|-----------7-----------7-----------7-----------7-----------7-----------7-----------7--------------

G|--------------------------------------------------------------------------------------------------
D|--------------------------------------------------------------------------------------------------
A|-----------------------7-----7--7-----7--7-----------------------------5-----5--5-----4--4--------
E|--7--7-----7--------------------------------------5--5-----5--------------------------------------

G|--------------------------------------------------------------------------------------------------
D|--------------------------------------------------------------------------------------------------
A|-----------------------7-----7--7-----7--7-----------------------------5-----5--5-----4--4--------
E|--7--7-----7--------------------------------------5--5-----5--------------------------------------

G|--------------------------------------------------------------------------------------------------
D|--------------------------------------------------------------------------------------------------
A|-----------------------7-----7--7-----7--7-----------------------------7-----7--7-----7--7--------
E|--7--7--------------------------------------------7--7--------------------------------------------

Verse
G|--------------------------------------------------------------------------------------------------
D|--------------------------------------------------------------------------------------------------
A|-----------------------7-----7-----7--7--------------------------------5-----5-----5--4--------4--
E|--7--7--7-----------------------------------------5--5--5-----------------------------------------

G|--------------------------------------------------------------------------------------------------
D|--------------------------------------------------------------------------------------------------
A|-----------------------7-----7-----7--7--------------------------------5-----5-----5--4--------4--
E|--7--7--7-----------------------------------------5--5--5-----------------------------------------

G|--------------------------------------------------------------------------------------------------
D|-----------------------------------------------------------------------7-----6--------------------
A|-----------------------7-----7-----7--7--------7--9--9--9--------5--5--------------7--5--5--5--5--
E|--7--7--7-----------------------------------------------------------------------------------------

Chorus
G|--------------------------------------------------------------------------------------------------
D|--------------------------------------------------------------------------------------------------
A|--------------------------------------------------------------------------5-----5-----5-----------
E|--5--5--5-----5-----5-----4-----4-----4-----4-----2-----2-----2-----2--------------------5--5--5--

G|--------------------------------------------------------------------------------------------------
D|--------------------------------------------------------------------------------------------------
A|--------------------------------------------------------------------------5-----5-----5-----------
E|--5--5--5-----5-----5-----4-----4-----4-----4-----2-----2-----2-----2--------------------5--5--5--

G|--------------------------------------------------------------------------------------------------
D|--------------------------------------------------------------------------------------------------
A|--------------------------------------------------------------------------5--5--5-----------------
E|--5--5--5--------------5--4--4--4--------------4--2--2--2--------------2--------------------------

G|--------------------------------------------------------------------------------------------------
D|--------------------------------------------------------------------------------------------------
A|--------------------------------------------------5--5--5--5--5--5--5--5--7--7--7--7--7--7--7--7--
E|--5--5--5-----5-----5-----4-----4-----4-----4-----------------------------------------------------

Verse 2

Chorus 2

Bridge
G|--------------------------------------------------12----------------12----12-12-------------12----
D|--11----------------11----11-11-------------11----------------------------------------------------
A|-----------------------------------------------------------10----------10----------10----------10-
E|-----------9-----------9-----------9-----------9--------------------------------------------------

G|--------------------------------------------------12----------------12----12-12-------------12----
D|--11----------------11----11-11-------------11----------------------------------------------------
A|-----------------------------------------------------------10----------10----------10----------10-
E|-----------9-----------9-----------9-----------9--------------------------------------------------

G|--16----------------16----16-16-------------16----------------------------------------------------
D|--------------------------------------------------14----------------14----14-14-------------------
A|-----------14----------14----------14----------14-------------------------------------------------
E|-----------------------------------------------------------12----------12-------12----12----12----

Interlude

Intro

Verse 3

Chorus 3

Fade out
tabs and chords, guitar tabs, music transcription, music technology, deep learning, music information retrieval, transcribe into tabs & chords, chordify, music renditions, songsterr, reverbnation, tabulature, bollywood chords, ultimate guitar, yousician, guitar lessons, acoustic guitar, electric guitar, guitar tuner, 911 tabs