Guitar Tabs for Ha

(/) Slide Up  (\) Slide Down  (h) Hammer On  (p) Pull Off  (b) Bend (r) Release (v) Vibrato (x) Muted

Tabs for Song : 
BPM : 200

Song lyrics her
E|--------------5-----------------5--------------------------------------
B|--3--5--7--------------7--5-----------5-----3-----7--------3--2--------
G|-----------------------------------------------------------------------
D|-----------------------------------------------------------------------
A|-----------------------------------------------------------------------
E|-----------------------------------------------------------------------


Song lyrics here
E|--------------------------------------------------------------------
B|-----3--2--------2--3--5--------3-----5--7--8-----8--7--5--3--5-----
G|-----------4--------------2-----------------------------------------
D|--------------------------------------------------------------------
A|--------------------------------------------------------------------
E|--------------------------------------------------------------------

E|--------------5-----------------5--------------------------------------
B|--3--5--7--------------7--5-----------5-----3-----7--------2--3--3-----
G|-----------------------------------------------------------------------
D|-----------------------------------------------------------------------
A|-----------------------------------------------------------------------
E|-----------------------------------------------------------------------

E|--------------------------------------------------------------------
B|-----------0-----2--3--5--------3-----5--7--8-----8--7--5--3--3-----
G|-----2--------------------2-----------------------------------------
D|--------------------------------------------------------------------
A|--------------------------------------------------------------------
E|--------------------------------------------------------------------

E|--------------------------------------------------------------------------------------
B|--7--8--10----10----10----10----10-12-10-8--7-----7-----7-----7-----7--8--7--5--------
G|--------------------------------------------------------------------------------7-----
D|--------------------------------------------------------------------------------------
A|--------------------------------------------------------------------------------------
E|--------------------------------------------------------------------------------------

E|----------------------------------0--0--2--0--2--0------
B|--3-----3--2--0-----2-----2--3--------------------------
G|--------------------------------------------------------
D|--------------------------------------------------------
A|--------------------------------------------------------
E|--------------------------------------------------------

E|--------------------------------------------------------------------------------------
B|--7--8--10----10----10----10----10-12-10-8--7-----7-----7-----7-----7--8--7--5--------
G|--------------------------------------------------------------------------------7-----
D|--------------------------------------------------------------------------------------
A|--------------------------------------------------------------------------------------
E|--------------------------------------------------------------------------------------

E|-----------------------------------------------------------------------------
B|-----------------------------------------------------------------------------
G|--7-----7--6--------------6--7--9--------7-----7-----9-----11-11----9-----7--
D|--------------9-----9--------------7-----------------------------------------
A|-----------------------------------------------------------------------------
E|-----------------------------------------------------------------------------



Paste any tab in acousterr's tab maker and we'll play it !!!
Now supports capo and sound effects for vibrato/pull-off/hammer/bends/mutes etc !!! Checkout help section






tabs and chords, guitar tabs, music transcription, music technology, deep learning, music information retrieval, transcribe into tabs & chords, chordify, music renditions, songsterr, reverbnation, tabulature, bollywood chords, ultimate guitar, yousician, guitar lessons, acoustic guitar, electric guitar, guitar tuner, 911 tabs