Guitar Tabs for Age Of Worry

(/) Slide Up  (\) Slide Down  (h) Hammer On  (p) Pull Off  (b) Bend (r) Release (v) Vibrato (x) Muted

Tabs for Song : Age of Worry



E|--------0-----------------------------------------------------------------------------------------
B|--0-----------3-----0-----------0-----------------------------------0-----0-----------------------
G|--------------------------2-----------0-----2-----------0-----0-----------------------2-----------
D|--------------0--0-----0-----------2--------------2-----------------------------0-----------0-----
A|--------------------------3--3--------3--3-----3--3--3-----3--3--3-----3--------------------------
E|--3--3-----3--------------------------------------------------------------3--3-----3--2--2-----2--

E|--------0-----------------------------------------------------------------------------
B|--0-----------3-----0-----------0--------------------1--0-----------------------------
G|--------------------------2-----------0-----2--------------2-----0-----0-----------0--
D|--------------0--0-----0-----------2--------------2--------0--0-----0--------0--------
A|--------------------------3--3--------3--3-----3--3--3--3-----------------------------
E|--3--3-----3-----------------------------------------------------------3--3-----3--3--
tabs and chords, guitar tabs, music transcription, music technology, deep learning, music information retrieval, transcribe into tabs & chords, chordify, music renditions, songsterr, reverbnation, tabulature, bollywood chords, ultimate guitar, yousician, guitar lessons, acoustic guitar, electric guitar, guitar tuner, 911 tabs