Bass Tabs for Ac/dc - The Jack

AC/DC - The Jack

Intro
G|--------------------------------------------------------------------------
D|--------------------------------------------------------------------------  3x
A|--------------------------------------------------------------------------
E|--7-----7--7-----7--7-----7--7-----7--5-----5--5-----5--5-----5--5-----5--

G|-----------------------------------------------------------------------------------
D|-----------------------------------------------------------------------------------
A|-----------------------------------------------------------------------------------
E|--0-----0--0-----0--0-----0--0--5--6--7--------7--7--7--7--7--7--7--7--7--7--7---7/

Verse
G|-----       G|------
D|----- 16x   D|------  16x
A|-----       A|------
E|--0--       E|---5--

G|-----       G|------
D|----- 16x   D|------  12x
A|-----       A|------
E|--0--       E|---5--

G|--------------------------------------
D|--------------------------------------
A|--------------------------------------
E|--5--5--5--5--5--5--5--5--5--5--5--5--

Chorus
G|-----|-------
D|-----|------- 15x
A|-----|-------
E|--0--|-0--0--

G|----|--------
D|----|-------- 8x
A|----|--------
E|--5-|-5--5---

G|-----|-------
D|-----|------- 8x
A|-----|-------
E|--0--|-0--0--

G|--------------------------------------------------------------------------
D|--------------------------------------------------------------------------
A|--------------------------------------------------------------------------
E|--7--7--7--7--7--7--7--7--7--7--7--7--5--5--5--5--5--5--5--5--5--5--5--5--

G|--------------------------------------------------------
D|--------------------------------------------------------
A|--------------------------------------------------------
E|--0-----0--0-----0--0-----0--0--5--6--7--7--7--7--5--3--












tabs and chords, guitar tabs, music transcription, music technology, deep learning, music information retrieval, transcribe into tabs & chords, chordify, music renditions, songsterr, reverbnation, tabulature, bollywood chords, ultimate guitar, yousician, guitar lessons, acoustic guitar, electric guitar, guitar tuner, 911 tabs