Bass Tabs for Ac/dc - Rock And Roll Damnation

BASS TAB
AC/DC - Rock and Roll Damnation 

Intro & Verse
G|--------------------------------------------------
D|--------------------------------------------------
A|--------------------------------------------------
E|--5--5--5--5--5--5--5--5--5--5--5--5--5--5--5--5--

Chorus
G|--------------------------------------------------------
D|--------------------------------------------------------
A|--------------------------------------------------------
E|--3--2--5--5--5--5--5--5--5--5--3--2--5--5--5--5--5--5--

G|--------------------------------------------------------------------
D|--------------------------------------------------------------------
A|--------------------------------5--5--5--5--5--5--7--7--7--7--7--7--
E|--3--2--5--5--5--5--5--5--5--5--------------------------------------

Last Chorus
G|-----------------------------------------------------
D|-----------------------------------------------------
A|-----------------------------------------------------
E|--3--2--5--5--5--5--5--5--5--3--2--5--5--5--5--5--5--

G|-----------------------------------------------------
D|--------------------------5--5--5--5--5--7--7--7--7--
A|-----------------------------------------------------
E|--3--2--5--5--5--5--5--5-----------------------------

Outro
G|--------------
D|--------------
A|--------------
E|--3--3--3--5--


tabs and chords, guitar tabs, music transcription, music technology, deep learning, music information retrieval, transcribe into tabs & chords, chordify, music renditions, songsterr, reverbnation, tabulature, bollywood chords, ultimate guitar, yousician, guitar lessons, acoustic guitar, electric guitar, guitar tuner, 911 tabs