Guitar Tabs for Aayat - Bajirao Mastani Tabs

(/) Slide Up  (\) Slide Down  (h) Hammer On  (p) Pull Off  (b) Bend (r) Release (v) Vibrato

Tabs for Song : Aayat

Tujhe yaad kar liya hai
E|--7--5--------------------------
B|---------7\-5\3---3/7--5--7--7--
G|--------------------------------
D|--------------------------------
A|--------------------------------
E|--------------------------------

Aayat ki tarah
E|--7--5---7/10-7-----7-----------7--10-7-----------------
B|-----------------------10-7--10----------10-10\-7p------
G|-----------------------------------------------------9--
D|--------------------------------------------------------
A|--------------------------------------------------------
E|--------------------------------------------------------

Kaayam tu ho gayi hai
E|--7--5-----------------------------
B|---------7\-5\3---3/7-----5--7--7--
G|-----------------------------------
D|-----------------------------------
A|-----------------------------------
E|-----------------------------------

Kaayam tu ho gayi hai
E|--10-7-----------------------------
B|---------7\-5\3---3/7-----5--7--7--
G|-----------------------------------
D|-----------------------------------
A|-----------------------------------
E|-----------------------------------

Rivayat ki tarah
E|--7---5/10-7-----7--12-10-----7/10\-7\5------5/-7\-5\2--
B|--------------10----------------------------------------
G|--------------------------------------------------------
D|--------------------------------------------------------
A|--------------------------------------------------------
E|--------------------------------------------------------

Tujhe yaad kar liya hai
E|--7--5-----------------------------
B|---------7\-5\3---3/7-----5--7--7--
G|-----------------------------------
D|-----------------------------------
A|-----------------------------------
E|-----------------------------------

Marne talak rahegi
E|--------12----10-14-12-10----10-10-
B|--10-12-------------------12-------
G|-----------------------------------
D|-----------------------------------
A|-----------------------------------
E|-----------------------------------

Marne talak rahegi
E|--------14-12----10-12-10----10-10-
B|--10-10-------------------12-------
G|-----------------------------------
D|-----------------------------------
A|-----------------------------------
E|-----------------------------------

Tu aadat ki tarah
E|--14-12-14/17-14----12-10-7------7/10\-7\5---5/-7\-5\2--
B|--------------------------------------------------------
G|--------------------------------------------------------
D|--------------------------------------------------------
A|--------------------------------------------------------
E|--------------------------------------------------------

Tujhe yaad kar liya hai
E|--7--5-----------------------------
B|---------7\-5\3---3/7-----5--7--7--
G|-----------------------------------
D|-----------------------------------
A|-----------------------------------
E|-----------------------------------
tabs and chords, guitar tabs, music contests, music covers, songsterr, reverbnation, renditions, tabulature, bollywood chords, ultimate guitar, yousician, guitar lessons, torrins, fender, gibson, acoustic guitar, electric guitar, youtube covers, gootar, guitar tuner, A-Z tabs, 911 tabs