Guitar Tabs for Aashiqui Main Teri

aa aa aashiqui mein teri jaa jaa jaayegi jaan meri
E|-----------------------------------------------------------------------------------------
B|-----------------------------------------------------------------------------------------
G|---6/8--8-----6-----6--6-----6--6---4h-6p4------6/8--8-----6-----6--6-----6-----6--6-----
D|-----------------------------------------------------------------------------------------
A|-----------------------------------------------------------------------------------------
E|-----------------------------------------------------------------------------------------

aa aa aashiqui mein teri jaa jaa jaayegi jaan meri
E|-----------------------------------------------------------------------------------------
B|--------------------------7-----4--------------------------------------------------------
G|---6/8--8-----6-----6--6------------4h-6p4------6/8--8-----6-----6--6-----6-----6--6-----
D|-----------------------------------------------------------------------------------------
A|-----------------------------------------------------------------------------------------
E|-----------------------------------------------------------------------------------------

de de dil jaaye na jaan yeh
E|-----------------------------------------------------------------
B|-----------------------------------------------------------------
G|---6/9--9--8-----9-----9--9--8---6/9--9--8-----9-----9--9--8-----
D|-----------------------------------------------------------------
A|-----------------------------------------------------------------
E|-----------------------------------------------------------------

hain kasam hain meri
E|-----------------------------------
B|-----------------------------------
G|---6/8--8--8---6h-8p6--4---6/8-----
D|-----------------------------------
A|-----------------------------------
E|-----------------------------------

aa aa aashiqui mein teri jaa jaa jaayegi jaan meri
E|--------------------------------------------------------------------------------------
B|--------------------------------------------------------------------------------------
G|---6/8--8-----6-----6--6-----6--6---4h-6p4---6/8--8-----6-----6--6-----6-----6--6-----
D|--------------------------------------------------------------------------------------
A|--------------------------------------------------------------------------------------
E|--------------------------------------------------------------------------------------

tu meri jannat hain tu hi meri chahat hain
E|--------------------------------------------------------------
B|---5/7--4---------------------5/7--7--4-----------------------
G|-----------6--4---4h-6p4--6--------------6--4---4h-6p4--6-----
D|--------------------------------------------------------------
A|--------------------------------------------------------------
E|--------------------------------------------------------------

tu meri bechaini tu hi meri raahat hain
E|--------------------------------------------------------------
B|---5/7--4---------------------5/7--7--4-----------------------
G|-----------6--4---4h-6p4--6--------------6--4---4h-6p4--6-----
D|--------------------------------------------------------------
A|--------------------------------------------------------------
E|--------------------------------------------------------------


tu hi manzil meri
E|-----------------------------------
B|-----------------------------------
G|---6/8--8--8---6h-8p6--4---6/8-----
D|-----------------------------------
A|-----------------------------------
E|-----------------------------------


aa aa aashiqui mein teri jaa jaa jaayegi jaan meri
E|-----------------------------------------------------------------------------------------
B|-----------------------------------------------------------------------------------------
G|---6/8--8-----6-----6--6-----6--6---4h-6p4------6/8--8-----6-----6--6-----6-----6--6-----
D|-----------------------------------------------------------------------------------------
A|-----------------------------------------------------------------------------------------
E|-----------------------------------------------------------------------------------------

main teri deewangi mein hadh se gujar chuka hoon
E|-----------------------------------------------------------------------------------
B|---4/5-----4---5/7--4--5-----4---5/7---7\5---4h-5p4--4--4---5/7--5---4h-5p4--4-----
G|-----------------------------------------------------------------------------------
D|-----------------------------------------------------------------------------------
A|-----------------------------------------------------------------------------------
E|-----------------------------------------------------------------------------------

kya bataaun kis kadar main tujhpe marr chuka hoon
E|-----------------------------------------------------------------
B|--4--------------4--4--------------4---5/7---4h-5p4--------------
G|-----6--4--6-----------6--4--6-----------------------6--6--6-----
D|-----------------------------------------------------------------
A|-----------------------------------------------------------------
E|--------------------------------------------------------------------

tabs and chords, guitar tabs, music transcription, music technology, deep learning, music information retrieval, transcribe into tabs & chords, chordify, music renditions, songsterr, reverbnation, tabulature, bollywood chords, ultimate guitar, yousician, guitar lessons, acoustic guitar, electric guitar, guitar tuner, 911 tabs