Guitar Tabs for Aashiqui 2 Theme

(/) Slide Up  (\) Slide Down  (h) Hammer On  (p) Pull Off  (b) Bend (r) Release (v) Vibrato (x) Muted

Tabs for Song : aashiqui 2 theme
BPM : 200


E|-----------------------------------------------------------------------------------------\
B|--------8--9-----8--9--------------------------------------8--------8--------------------
G|---8/10-------10-----------------------------------6/8--10----8--10----------------------
D|-----------------------10-10/11-11-10-10/11----------------------------10-10/11-11-10-10-
A|-----------------------------------------------------------------------------------------
E|-----------------------------------------------------------------------------------------

 
E|-----------------------------8--8-----------------------------------8--8---8h-9p8--
B|-----------------------------------11-11-9---9/11-------11-11-8--8-----------------
G|--------8--10----8--10----10-------------------------------------------------------
D|-----11-------11-------------------------------------------------------------------
A|-----------------------------------------------------------------------------------
E|-----------------------------------------------------------------------------------


E|-----------------------------------------------------------------------------------
B|-----------------------------8--8-----------------------------------8--8-----------
G|------8/10-10-8---8/10----10-------8---8\5-----10-10-8---8/10----10-------8---8\5--
D|-----------------------------------------------------------------------------------
A|-----------------------------------------------------------------------------------
E|-----------------------------------------------------------------------------------

E|--------------------------------------------------------------------------------------------
B|--------------------------------------------------------------------------------------------
G|-----6--6--5--6-----5---5h6--5-----------6--5-----6--6--5--6-----5---6/8--5-----------6--5--
D|-----------------------------------8--6-----------------------------------------8--6--------
A|--------------------------------------------------------------------------------------------
E|--------------------------------------------------------------------------------------------

E|--------------------------------9--9--8--8-----------------13-12/13-13-8--8-----------------------------------
B|--------------8--8-----8-----8--------------11-11/13----13-------------------11-11-9---9/11----9------8h-9p8--
G|-----8--10-10-------10----------------------------------------------------------------------------------------
D|--------------------------------------------------------------------------------------------------------------
A|--------------------------------------------------------------------------------------------------------------
E|--------------------------------------------------------------------------------------------------------------

E|-----------------------------------------------------------------------
B|-----11/13-9--11----9--11-11/13-9--11----8-----11-9-----8---8h9--------
G|-----------------------------------------------------------------8--10-
D|-----------------------------------------------------------------------
A|-----------------------------------------------------------------------
E|-----------------------------------------------------------------------

E|-----------------------------------------------------------------------------------
B|-----8--9--11-11/13-9--11----9--11-11/13-9--11----8--8-----11-9-----8---8h9--------
G|-----------------------------------------------------------------------------8--10-
D|-----------------------------------------------------------------------------------
A|-----------------------------------------------------------------------------------
E|-----------------------------------------------------------------------------------
tabs and chords, guitar tabs, music transcription, music technology, deep learning, music information retrieval, transcribe into tabs & chords, chordify, music renditions, songsterr, reverbnation, tabulature, bollywood chords, ultimate guitar, yousician, guitar lessons, acoustic guitar, electric guitar, guitar tuner, 911 tabs